PrimaNota.ru - самый крупный в мире бесплатный архив песенных текстов, аккордов, табулатур и нот


Planta E Raiz - De Cara Pro Mundo - бас-таба, видео

Регистрация Запомнить меня
Войти через:  Facebook Google Twitter Vk Yandex Mail.ru

Planta E Raiz - De Cara Pro Mundo - бас-таба, видео

Печатать
Просмотров: 90
-------------------------------------------------------------------------------
                             SONG NAME - Band Name
-------------------------------------------------------------------------------
Tabbed by: Paulo Augusto
E-mail: paulo-augusto992@hotmail.com

I took the tab from a video cover by Stenio Couto(http://youtu.be/kC8GWkFL6uI)

Tuning:E A D G


VERSE 1
G|---------------------------------------------------------------------------|
D|------------2-------------22-------------------------------22--------------|
A|--------3-5-----------3-5----5-3-5-3------------33353----------------------|
E|-----3-------------3-----------------0335--------------553----535---033-03-|



VERSE 2
G|-------------5---44--------------------------------------------------------|
D|---------------5----5----------7---55-----------------055-05---------------|
A|--------3-5----------------5-7---7----5--088-08----------------------------|
E|----3-5----------------5-7-----------------------11-----------33-----------|


===============================================================================
| /  slide up
| \  slide down
| h  hammer-on
| p  pull-off
| ~  vibrato
| +  harmonic
| x  Mute note
===============================================================================
Добавлено: 22.07.2015
Другие материалы по этой песне:
  • Аккорды и текст

Страница создана 22.07.2015
http://primanota.ru/planta-e-raiz/de-cara-pro-mundo-chords.htm
Привет, Гость.
Предлагаем пройти революционный курс по гитаре.
Подарок от PrimaNota.Ru, забирай!