PrimaNota.ru - самый крупный в мире бесплатный архив песенных текстов, аккордов, табулатур и нот


Planlos - Scheissegal - таба, видео

Регистрация Запомнить меня
Войти через:  Facebook Google Twitter Vk Yandex Mail.ru

Planlos - Scheissegal - таба, видео

Печатать
Просмотров: 55
Artist: Planlos
Title: Scheissegal
Tabbed by: Schadi (schadhauserflo@aol.com)
Tuning: normal (E A D G H e)

Eine der besten Punkbans, finde ich.
Ein ziemlich einfaches, aber auch interessantes Lied!

Intro

Lead
|------------------------------------------------------------------------|
|--6-6-6--2-4---2-4--6-4s2---6-6-6--2-4--4-2-4-4-4---4-6-4-2-------------|
|------------------------------------------------------------------------|
|------------------------------------------------------------------------|
|------------------------------------------------------------------------|
|------------------------------------------------------------------------|
|
|------------------------------------------------------------------------|
|--6-6-6--2-4---2-4--6-4s2---6-6-6--2-4--4-2-4-4-4---4-6-4-2-------------|
|------------------------------------------------------------------------|
|------------------------------------------------------------------------|
|------------------------------------------------------------------------|
|------------------------------------------------------------------------|

Rhythmus
|------------------------------------------------------------------------|
|------------------------------------------------------------------------|
|------------------------------------------------------------------------|
|--------------------9-9-9-9-9-9-9-9---------------------7-7-7-7---------|
|----7-7-7-7-7-7-7---7-7-7-7-7-7-7-7---9-9-9-9-9-9-9-9---5-5-5-5---------|
|----5-5-5-5-5-5-5---------------------7-7-7-7-7-7-7-9-------------------|
|
|------------------------------------------------------------------------|
|------------------------------------------------------------------------|
|------------------------------------------------------------------------|
|--------------------9-9-9-9-9-9-9-9---------------------7-7-7-7---------|
|--7-7-7-7-7-7-7-7---7-7-7-7-7-7-7-7---9-9-9-9-9-9-9-9---5-5-5-5---------|
|--5-5-5-5-5-5-5-5---------------------7-7-7-7-7-7-7-9-------------------|
|
|------------------------------------------------------------------------|
|------------------------------------------------------------------------|
|------------------------------------------------------------------------|
|--------------------9-9-9-9-9-9-9-9---------------------7-7-7-7---------|
|--7-7-7-7-7-7-7-7---7-7-7-7-7-7-7-7---9-9-9-9-9-9-9-9---5-5-5-5---------|
|--5-5-5-5-5-5-5-5---------------------7-7-7-7-7-7-7-9-------------------|
|
|------------------------------------------------------------------------|
|------------------------------------------------------------------------|
|------------------------------------------------------------------------|
|--------------------9-9-9-9-9-9-9-9---------------------7-7-7-7---------|
|--7-7-7-7-7-7-7-7---7-7-7-7-7-7-7-7---9-9-9-9-9-9-9-9---5-5-5-5---------|
|--5-5-5-5-5-5-5-5---------------------7-7-7-7-7-7-7-9-------------------|

Verse (beide Gitarren) (0:21)

|------------------------------------------------------------------------|
|------------------------------------------------------------------------|
|------------------------------------------------------------------------|
|-------------9----9-9-9--------------7-7-7---7--------------------------|
|---7--7-7-7--7----7-7-7--9---9-9-9---5-5-5---5--------------------------|
|---5--5-5-5--------------7---7-7-7--------------------------------------|
Ich glaub an Gott...

|------------------------------------------------------------------------|
|------------------------------------------------------------------------|
|------------------------------------------------------------------------|
|-------------9----9-9-9--------------7-7-7---7--------------------------|
|---7--7-7-7--7----7-7-7--9---9-9-9---5-5-5---5--------------------------|
|---5--5-5-5--------------7---7-7-7--------------------------------------|
Doch ich weiß genau...

|------------------------------------------------------------------------|
|------------------------------------------------------------------------|
|------------------------------------------------------------------------|
|-------------9----9-9-9--------------7-7-7---7--------------------------|
|---7--7-7-7--7----7-7-7--9---9-9-9---5-5-5---5--------------------------|
|---5--5-5-5--------------7---7-7-7--------------------------------------|
Was heut geschieht...

|------------------------------------------------------------------------|
|------------------------------------------------------------------------|
|------------------------------------------------------------------------|
|-------------9----9-9-9-----7--9----------------------------------------|
|---7--7-7-7--7----7-7-7--9--5--7----------------------------------------|
|---5--5-5-5--------------7----------------------------------------------|
|
|------------------------------------------------------------------------|
|----------------------------4--6----------------------------------------|
|------------------------------------------------------------------------|
|------------------------------------------------------------------------|
|------------------------------------------------------------------------|
|------------------------------------------------------------------------|
den du heute liebst...

Chorus (0:42)
|------------------------------------------------------------------------|
|------------------------------------------------------------------------|
|------------------------------------------------------------------------|
|--------------9----------7----------9-----------------------------------|
|---7----------7----------5----------7-----------------------------------|
|---5--------------------------------------------------------------------|
|
|------------------------------------------------------------------------|
|---6----------4------6-4-2---------4-4-4--------------------------------|
|------------------------------------------------------------------------|
|------------------------------------------------------------------------|
|------------------------------------------------------------------------|
|------------------------------------------------------------------------|
Es ist scheissegal...

|------------------------------------------------------------------------|
|------------------------------------------------------------------------|
|------------------------------------------------------------------------|
|--------------9----------7----------9--9--9-----------------------------|
|---7----------7----------5----------7--7--7-----------------------------|
|---5--------------------------------------------------------------------|
|
|------------------------------------------------------------------------|
|---6----------4------6-4-2---------4-4-4--------------------------------|
|------------------------------------------------------------------------|
|------------------------------------------------------------------------|
|------------------------------------------------------------------------|
|------------------------------------------------------------------------|
Es ist scheissegal...

|------------------------------------------------------------------------|
|------------------------------------------------------------------------|
|------------------------------------------------------------------------|
|--------------9----------7----------9-----------------------------------|
|---7----------7----------5----------7-----------------------------------|
|---5--------------------------------------------------------------------|
|
|------------------------------------------------------------------------|
|---6----------4------6-4-2---------4-4-4--------------------------------|
|------------------------------------------------------------------------|
|------------------------------------------------------------------------|
|------------------------------------------------------------------------|
|------------------------------------------------------------------------|
Es ist scheissegal...

|------------------------------------------------------------------------|
|------------------------------------------------------------------------|
|------------------------------------------------------------------------|
|--------------9----------7----------9-----------------------------------|
|---7----------7----------5----------7-----------------------------------|
|---5--------------------------------------------------------------------|
|
|------------------------------------------------------------------------|
|---6----------4------6-4-2---------4-4-4--------------------------------|
|------------------------------------------------------------------------|
|------------------------------------------------------------------------|
|------------------------------------------------------------------------|
|------------------------------------------------------------------------|
Der Mensch wird sich nie ändern...


Bridge (1:58)

Rhythmus
|------------------------------------------------------------------------|
|------------------------------------------------------------------------|
|------------------------------------------------------------------------|
|---9-9-9-9-9-9-9-9-----7-7-7-7-7-7-7-7----------------------------------|
|---7-7-7-7-7-7-7-7-----5-5-5-5-5-5-5-5---7-7---7-7----------------------|
|-----------------------------------------5-5---5-5----------------------|

|------------------------------------------------------------------------|
|------------------------------------------------------------------------|
|------------------------------------------------------------------------|
|---9-9-9-9-9-9-9-9-----7-7-7-7-7-7-7-7----------------------------------|
|---7-7-7-7-7-7-7-7-----5-5-5-5-5-5-5-5---7-7---7-7----------------------|
|-----------------------------------------5-5---5-5----------------------|

|------------------------------------------------------------------------|
|------------------------------------------------------------------------|
|------------------------------------------------------------------------|
|---9-9-9-9-9-9-9-9-----7-7-7-7-7-7-7-7----------------------------------|
|---7-7-7-7-7-7-7-7-----5-5-5-5-5-5-5-5---7-7---7-7----------------------|
|-----------------------------------------5-5---5-5----------------------|

|------------------------------------------------------------------------|
|------------------------------------------------------------------------|
|------------------------------------------------------------------------|
|---9-9-9-9-9-9-9-9-----7-7-7-7-7-7-7-7-----9-9-9-9-9-9-9-9--------------|
|---7-7-7-7-7-7-7-7-----5-5-5-5-5-5-5-5-----7-7-7-7-7-7-7-7--------------|
|------------------------------------------------------------------------|

|------------------------------------------------------------------------|
|------------------------------------------------------------------------|
|------------------------------------------------------------------------|
|---9--7--------9--7-----------------------------------------------------|
|---7--5--9-----7--5--9--------------------------------------------------|
|---------7-----------7--------------------------------------------------|


Lead
|------------------------------------------------------------------------|
|------------------------------------------------------------------------|
|---6-6-6---2-4--2-4--6-2s6----------------------------------------------|
|------------------------------------------------------------------------|
|------------------------------------------------------------------------|
|------------------------------------------------------------------------|

|------------------------------------------------------------------------|
|------------------------------------------------------------------------|
|---6-6-6---2-4--2-4--6-2s6----------------------------------------------|
|------------------------------------------------------------------------|
|------------------------------------------------------------------------|
|------------------------------------------------------------------------|

|------------------------------------------------------------------------|
|------------------------------------------------------------------------|
|---6-6-6---2-4--2-4--6-2s6----------------------------------------------|
|------------------------------------------------------------------------|
|------------------------------------------------------------------------|
|------------------------------------------------------------------------|

|------------------------------------------------------------------------|
|------------------------------------------------------------------------|
|---6-6-6---2-4--2-4--6-6-6----------------------------------------------|
|------------------------------------------------------------------------|
|------------------------------------------------------------------------|
|------------------------------------------------------------------------|

s=slide

     
Добавлено: 29.07.2013
Другие материалы по этой песне:
  • Аккорды и текст

Страница создана 29.07.2013
http://primanota.ru/planlos/scheissegal-chords.htm
Привет, Гость.
Предлагаем пройти революционный курс по гитаре.
Подарок от PrimaNota.Ru, забирай!