PrimaNota.ru - самый крупный в мире бесплатный архив песенных текстов, аккордов, табулатур и нот


Plankeye - Wings To Fly - текст песни, таба, видео

Регистрация Запомнить меня
Войти через:  Facebook Google Twitter Vk Yandex Mail.ru

Plankeye - Wings To Fly - текст песни, таба, видео

Печатать
Просмотров: 598
		   Title-Wings to fly
Artist-Plankeye
>From the album "The Spark"
tabbed by Eric Benedict
bigfil@juno.com

I guarantee that this piece is correct if played at the right tempo.
Listen to Cd for tempo and I may have not wrote the chords the correct
number of times on the Chorus so listen for that too. If you don't own
this album improvise it should sound right

intro
e|-----------------------------------|
B|--------------------------------------|
G|-------------------------7-7787-|
D|---------3----6----6---6--------
A|---------3----6----6---8---------|
E|-----1---1----4---4----6--------|

e|--------------------------------------------------------8----------|
B|--8h9---9-------11----11--11---11p9-------------8----11--|
G|--8------8-------8------8---8----8----------8h9---9----9---|
D|--8h10-10------10---10--10---10---------8------8----8-|
A|--8------8-------8-----8----8----8----------8h10-10--10-----|
E|-----------------------------------------------8------8----8------|
repeat a few times

verse
e|--------------------------------------------------------8------|
B|--8h9---9-------11----11--11---11p9-------------8----11-
G|--8------8-------8------8---8----8----------8h9---9----9---|
D|--8h10-10------10---10--10---10---------8------8----8--|
A|--8------8-------8-----8----8----8----------8h10-10--10------|
E|-----------------------------------------------8------8----8---| 
repeat a few times
verse interlude
dist. Guitar
e|---------------------------------------------------------|
B|--------------------------------------------------------|
G|--------------------------------------------------------|
D|---6-6-6-6--6-6-6-6--8-8-8-8-8-8-8-8-|
A|---6-6-6-6--6-6-6-6--8-8-8-8-8-8-8-8|
E|---4-4-4-4--4-4-4-4--6-6-6-6-6-6-6-6|
go back to the regular verse a few times.
Chorus-dist.guitar
e|----------------------------------------|
B|----------------------------------------|
G|----------------------------------------|
D|--3-3---6--6---8-8-8-8-8-8---------|
A|--3-3---6--6---8-8-8-8-8-8---|
E|--1-1---4--4---6-6-6-6-6-6---|
I'm still working on the solo but it is the progression of the verse
then into the chorus.
This should sound right 
all hate mail, friendly mail, corrections, love letters to
Bigfil@juno.com 
Visit my band Lunar Fish webpage at
http://www.geocities.com/sunsetstrip/alley/7421/LUNAR.HTM

     
Добавлено: 30.08.2013
Другие материалы по этой песне:
  • Аккорды и текст

Страница создана 07.03.2012
http://primanota.ru/plankeye/wings-to-fly-chords.htm
Привет, Гость.
Предлагаем пройти революционный курс по гитаре.
Подарок от PrimaNota.Ru, забирай!