PrimaNota.ru - самый крупный в мире бесплатный архив песенных текстов, аккордов, табулатур и нот


Plankeye - He - аккорды и текст, таба, видео

Регистрация Запомнить меня
Войти через:  Facebook Google Twitter Vk Yandex Mail.ru

Plankeye - He - аккорды и текст, таба, видео

Печатать
Просмотров: 114
He
Plankeye
		   Song: He
Artist: Plankeye
Album: CommonWealth
       (c) 1996 (We Own Your Songs) divison of Tooth and Nail
Tabbed by Bryan (baxe@misi.net)
  
 
[Intro]
e|--------------------------------------|--------------|
B|--------------------------------------|--------------|
G|--9--7-----5--x-x--5--x-x--5--x-x--5--|--9--7--7--5--|
D|--9--7--7--5--x-x--5--x-x--5--x-x--5--|--9--7--7--5--| 3x
A|--7--5--7--3--x-x--3--x-x--3--x-x--3--|--7--5--5--3--|
E|--------5-----x-x-----x-x-----x-x-----|--------------|
 
[Verses]                      [Verse-->Chorus Fill]
e|--------------------------|-----------|
B|--------------------------|-----------|
G|--9---11/7--7--9/7--7-----|--9999999--|
D|--9---11/7--7--9/7--7-----|--9999999--|
A|--7---9-/5--5--7/5--5-----|--7777777--|
E|--------------------------|-----------|
 
[Chorus]
e|-----------------------------------|
B|-----------------------------------|
G|--777-555-xxx--555--xxx--555--xxx--|
D|--777-555-xxx--555--xxx--555--xxx--|
A|--555-333-xxx--333--xxx--333--xxx--|
E|----------xxx-------xxx-------xxx--|
 
[Solo Rythm]
e|---------------|
B|---------------|
G|--9--11--7--5--|
D|--9--11--7--5--|
A|--7--9---5--3--|
E|---------------|
 
[Intro]
E5-D5-?A5?-C5
E5-D5-D5-C5   (3x)
 
[Verse1]
E5-F#5-D5-E5-D5
 
E5  F#5 D5         E5 D5                   E5  
   Take me far away      live a place to stay
F#5   D5            E5     D5                                             
cause ive been wondering for far too long
                            E5
from the shadows of your wings
F#5  D5          E5    D5    E5
complacency has taken over, fly me far away
  
 
[Chorus]
 
D5  C5
    And I forgot 
D5  C5
    just what he means to me 
D5  C5
    Did you forget 
D5  C5
    just what you mean?
                   E5
Except for the silence...
 
[Verse2]
E5-F#5-D5-E5-D5
 
E5 F#5  D5               E5  D5             E5   
   Have you noticed that Im still here
  F#5  D5       E5 D5                           E5
I wait in vain,       when will you come near?
F#5   D5            E5  D5             
Words influence my nakedness and  
                                  E5       
compromise blurs the lines of distinction
 
F#5 D5   E5 D5    E5
 
[Chorus]
 
[Solo]
E5-F#5-D5-C5  (7x)
E5-F#5-D5
 
[Chorus]     
Добавлено: 29.06.2013
Другие материалы по этой песне:
  • Аккорды и текст

Страница создана 04.07.2012
http://primanota.ru/plankeye/he-chords.htm
Привет, Гость.
Предлагаем пройти революционный курс по гитаре.
Подарок от PrimaNota.Ru, забирай!