PrimaNota.ru - самый крупный в мире бесплатный архив песенных текстов, аккордов, табулатур и нот


Plankeye - Fall Down - аккорды и текст, таба, видео

Регистрация Запомнить меня
Войти через:  Facebook Google Twitter Vk Yandex Mail.ru

Plankeye - Fall Down - аккорды и текст, таба, видео

Печатать
Просмотров: 80
Fall Down
Plankeye
		   Plankeye: The One and Only
Copyright 1997 Tooth & Nail
Tabbed by Collin Derrick
E-mail: ejd@china2.ygi.edu.cn
[Fall Down]

this song has one guitar but on the verse there's this other picking thing
Verse:

A|---4--4--4--4-4-3--3--3-3-4--4--4--4-4-4--4--4-4-|
E|---2--2--2--2-2-4--4--4-4-1--1--1--1-1-2--2--2-2-|
           fall down

A|---4--4--4--4-4-3--3--3-3-4--4--4--4-4-4--4--4-4-|
E|---2--2--2--2-2-4--4--4-4-1--1--1--1-1-2--2--2-2-|
           kiss the ground once again

A|---4--4--4--4-4-3--3--3-3-4--4--4--4-4-4--4--4-4-|
E|---2--2--2--2-2-4--4--4-4-1--1--1--1-1-2--2--2-2-|
           this mire to.....

A|---4--4--4--4-4-3--3--3-3-4--4--4--4-4-4--4--4-4-|
E|---2--2--2--2-2-4--4--4-4-1--1--1--1-1-2--2--2-2-|
           to often my hearts desire

guitar picking that goes with verse:
E|---8--6--4--9------------------------|
B|--------------6-7------6-7-9---6h7-6-|

Chorus:(power chords)
    F#       C#           A#         F#           F F#
       i create my own shame, put a muzzle on my mouth
                 C#            A#
	 and when i get so very anxious, so very
    D|---4-3------4-3-----4h6---|
         anxious, anxious a-gain

	[VERSE]
	[CHORUS]repeat

Bridge:
    A# C# F#
	      we always go back
    A# C# F#
	      not this time
    A# C# F#          A#       C#      F#
	      we always go back not this time

Copyright 1997 We Own Your Songs Publilshing (SESAC)/ Stonewall Tozer Publishing (SESAC)     
Добавлено: 05.11.2013
Другие материалы по этой песне:
  • Аккорды и текст

Страница создана 14.04.2012
http://primanota.ru/plankeye/fall-down-chords.htm
Привет, Гость.
Предлагаем пройти революционный курс по гитаре.
Подарок от PrimaNota.Ru, забирай!