PrimaNota.ru - самый крупный в мире бесплатный архив песенных текстов, аккордов, табулатур и нот


Plankeye - Bicycle - текст песни, таба, бас-таба, видео

Регистрация Запомнить меня
Войти через:  Facebook Google Twitter Vk Yandex Mail.ru

Plankeye - Bicycle - текст песни, таба, бас-таба, видео

Печатать
Просмотров: 137
Уроки эстрадного вокала в Санкт-Петербурге
		   ---------------------------------------------------------------------------------
| Bicycle									|
| by:  Plankeye									|
| CD:  Commonwealth								|
| copyright:  (We Own Your Songs) a division of Tooth & Nail Record Co., Inc.	|
| from:  Joel Gompert (jesusfreak57@hotmail.com)				|
---------------------------------------------------------------------------------

E5-F#5-A5
		I have a wife,
E5-F#5-A5
		And together we live,
E5-F#5-A5			D5
		In a very small room.
   F#5-A5
		Yesterday she lost,
E5-F#5-A5
		Her car broke down,
E5-F#5-A5			 D5
		And now I ride a bicycle.

RIFF 1:
E------------------------|----------------------|
B------------------------|----------------------|
G---6--6--6--6--6--6--6--|--6h7--7--7--7--7--7--|
D------------------------|----------------------|
A------------------------|----------------------|
E------------------------|----------------------|
                                                                    

E------------------------|-------
B------------------------|--3----
G---9--9--9--9--9--9--9--|-------
D------------------------|-------
A------------------------|-------
E------------------------|-------  etc....


You say, "I told you so, you were much too young to get married."

RIFF 2:
E------0--3h2------
B---3----------3---
G------------------
D------------------
A------------------
E------------------

But I say, "You're way too old, and when'd you stop living anyway?"


E5-F#5-A5
		As I ride my bike,
E5-F#5-A5
		With my safety helmet on,
E5-F#5-A5			 D5
		And white tennis shoes,
   F#5-A5
		They stare at me,
E5-F#5-A5
		But I see through new eyes,
E5-F#5-A5				D5
		Or maybe you just don't remember

RIFF 1


You say, "I told you so, you were much too young to get married."


RIFF 2


But I say, "You're way too old, and when'd you stop living anyway?"


D5					   A5		D5
You say, "I told you so, you were much too young to get married."
D5						    A5		D5
But I say, "You're way too old, and when'd you stop living anyway?"



(The lead guitar in this part goes something like this, while rythym 
plays
the chords from the previous two lines above.)
E---------------------------|--------------------------|
B---------------8--7--------|--------------8--7--------|
G---------7--9--------7-----|--------7--9--------7-----|
D---7--9-----------------7--|--7--9-----------------7--|
A---------------------------|--------------------------|
E---------------------------|--------------------------|
                                                                        

                                                                        
E----------------------------------|--------------------------|
B---------------8--7--10--8--7-----|--------------8--7--------|
G---------7--9------------------7--|--------7--9--------7-----|
D---7--9---------------------------|--7--9-----------------7--|
A----------------------------------|--------------------------|
E----------------------------------|--------------------------|
                                                                        

                                                                        
E---------------------------|---------------------------------|
B---------------8--7--------|--------------8--7--10--8--7-----|
G---------7--9--------7-----|--------7--9------------------7--|
D---7--9-----------------7--|--7--9---------------------------|
A---------------------------|---------------------------------|
E---------------------------|---------------------------------|
                                                               

                                                                        
E---10~~~---
B-----------
G-----------
D-----------
A-----------
E-----------
                                                                        

D5				    E5  D5
This place that I'm supposed to be, 	   is not the chair in fromnt of a 
desk
   E5	      D5
In front of a mirror
		  E5	    D5				E5
Can't you see that it's not here or there or anywhere
D5							E5	  D5
But in speaking distance with God and where can you go that's too far?
				  E5 D5					E5
Because I can worship him anywhere    You said I can worship Him 
anywhere


D5
You say, "I told you so, you were much too young to get married.
But I say, "You're way too old, and when'd you stop living anyway?"


---Some of the tabs are just rough guesses  :-)
---Disagreements, Comments, Corrections, Questions: 
jesusfreak57@hotmail.com---
     
Добавлено: 17.06.2013
Другие материалы по этой песне:
  • Аккорды и текст

Страница создана 06.03.2012
http://primanota.ru/plankeye/bicycle-chords.htm
Привет, Гость.
Предлагаем пройти революционный курс по гитаре.
Подарок от PrimaNota.Ru, забирай!