PrimaNota.ru - самый крупный в мире бесплатный архив песенных текстов, аккордов, табулатур и нот


Planetshakers - Reflector - аккорды и текст, таба, видео

Регистрация Запомнить меня
Войти через:  Facebook Google Twitter Vk Yandex Mail.ru

Planetshakers - Reflector - аккорды и текст, таба, видео

Печатать
Просмотров: 149
Reflector
Planetshakers
PLANET SHAKERS - REFLECTOR

      Main Riff (played through verse)
    A     C#m   F#m   C#m-D C#m-D
E--------------------------------------------
B--------------------------------------------
G---------6-6---------6-7--6-7---------------
D---7-7---6-6---4-4---6-7--6-7---------------
A---7-7---4-4---4-4---4-5--4-5---------------
E---5-5---------2-2--------------------------


      Chorus
    A      F#m    E      D
E--------------------------------------------
B--------------------------------------------
G------------------------7-------------------
D---7------4------2------7-------------------
A---7------4------2------5-------------------
E---5------2------0--------------------------

This is 100% correct.
Any questions email me at davynicnac@hotmail.com

     
Добавлено: 06.09.2013
Другие материалы по этой песне:
  • Аккорды и текст

Страница создана 16.04.2012
http://primanota.ru/planetshakers/reflector-chords.htm
Привет, Гость.
Предлагаем пройти революционный курс по гитаре.
Подарок от PrimaNota.Ru, забирай!