PrimaNota.ru - самый крупный в мире бесплатный архив песенных текстов, аккордов, табулатур и нот


Planet X - Interlude In Milan - таба, видео

Регистрация Запомнить меня
Войти через:  Facebook Google Twitter Vk Yandex Mail.ru

Planet X - Interlude In Milan - таба, видео

Печатать
Просмотров: 120
Уроки эстрадного вокала в Санкт-Петербурге
E E E E E E E E E E E E  3x  E E E E E E E E E E
|--------------------------||----------------------|----|
|---------7-------7-------o||----------7-------7---|----|
|---4h5h6-----4-5-----4-5--||----4h5h6-----4-5-----|----|
|--------------------------||----------------------|----|
|-3---------6-------5-----o||--3---------6-------5-|----|
|--------------------------||----------------------|----|


  E E E  E E E  E E  E E E E      E E  E E E  E E  E E E E E
|-------------------------------|-------------------------------|
|----------7---------7----------|----------7---------7----------|
|---4h5h=6------4-5------4-5----|---4h=5h6------4--5-----4-5----|
|-------------------------------|-------------------------------|
|-3----------6---------5--------|-3-----------6--------5--------|
|-------------------------------|-------------------------------|
|
|   E    E E E  E    E            E    E E E  E    E E
|-------------------------------|-------------------------------|
|---7---------------------------|-7-----------------------------|
|-------10-8-7-10---------------|-----10-8-7-10-----------------|
|-------------------10----------|-----------------10-9----------|
|-------------------------------|-------------------------------|
|-------------------------------|-------------------------------|
|
| E          E         E          E             E      E
|-------------------------------|-------------------------------|
|-------------------------------|-------------------------------|
|-------------------------------|-------------------------------|
|-------------------------------|-------------------------------|
|-------------------------------|-------------------------------|
|-------------------------------|-------------------------------|
|-1----------4---------3--------|-1-------------4------3--------|


  E  E E E E  E  E E E  E  E E      E E E E E E E E E E E E
|---------------------------------|----------------------------|
|----------7---------7------------|---------7-------7----------|
|----4h5h6-------4-5-------4-5----|---4-5-6-----4-5-----4-5----|
|---------------------------------|----------------------------|
|-3-----------6---------5---------|-3---------6-------5--------|
|---------------------------------|----------------------------|
|
| E  E        E  E      E  E
|----------------------10-12------|----------------------------|
|------------11-13----------------|----------------------------|
|-9-11----------------------------|----------------------------|
|---------------------------------|----------------------------|
|---------------------------------|----------------------------|
|---------------------------------|----------------------------|
|
| E           E         E           E         E       E
|---------------------------------|----------------------------|
|---------------------------------|----------------------------|
|---------------------------------|----------------------------|
|---------------------------------|----------------------------|
|---------------------------------|----------------------------|
|---------------------------------|----------------------------|
|-1-----------4---------3---------|-1---------4-------3--------|


  E  E E E  E E E  E E  E E E      E E E E E E E E E E E E
|--------------------------------|----------------------------|
|-----------7--------7-----------|---------7-------7----------|
|----4h5h6------4--5------4-5----|---4h5h6-----4-5-----4-5----|
|--------------------------------|----------------------------|
|-3-----------6---------5--------|-3---------6-------5--------|
|--------------------------------|----------------------------|
|
|    ~~~~~~~~~~~~~~~~~~~~~
|    E      E      E    E
|---14-----18-----12---14--------|----------------------------|
|--------------------------------|----------------------------|
|--------------------------------|----------------------------|
|--------------------------------|----------------------------|
|--------------------------------|----------------------------|
|--------------------------------|----------------------------|
|
| E           E         E          E         E       E
|--------------------------------|----------------------------|
|--------------------------------|----------------------------|
|--------------------------------|----------------------------|
|--------------------------------|----------------------------|
|--------------------------------|----------------------------|
|--------------------------------|----------------------------|
|-1-----------4---------3--------|-1---------4-------3--------|


|-------------------------|-------|
|-------------------------|-------|
|-------------------------|-------|
|-------------------------|-------|
|-------------------------|-------|
|-------------------------|-------|
|
|                            ~~
| E E E     E E  E  E        E
|-------------------------|-10----|
|-----9---------12S11-----|-------|
|-8h9-------8h9-----------|-------|
|-------------------------|-------|
|-------------------------|-------|
|-------------------------|-------|


|--------------------------|----|
|--------------------------|----|
|--------------------------|----|
|--------------------------|----|
|--------------------------|----|
|--------------------------|----|
|
|                ~~
| E  E E  E E E  E
|-9h10p9-------------------|----|
|--------10-8-6-10---------|----|
|--------------------------|----|
|--------------------------|----|
|--------------------------|----|
|--------------------------|----|


|-|
|-|
|-|
|-|
|-|
|-|


  E E E     E E E   E E E   E E E     E E E   E E E   E E E   E E E E E E
|--------||-------|-------|--------||-------|-------|-------|-------------|
|-4-3-1-o||-2-4---|-2S6---|-4-3-1-o||-2-4---|-2S6---|-8-6-4-|-8-6-4-2-6-5-|
|--------||-----3-|-----7-|--------||-----3-|-----7-|-------|-------------|
|--------||-------|-------|--------||-------|-------|-------|-------------|
|-------o||-------|-------|-------o||-------|-------|-------|-------------|
|--------||-------|-------|--------||-------|-------|-------|-------------|


   E E
|------|----|
|-11-9-|----|
|------|----|
|------|----|
|------|----|
|------|----|


|-|
|-|
|-|
|-|
|-|
|-|

Добавлено: 13.03.2012
Вам также может быть интересно:
Другие материалы по этой песне:

Страница создана 13.03.2012
http://primanota.ru/planet-x/interlude-in-milan-chords.htm
Привет, Гость.
Предлагаем пройти революционный курс по гитаре.
Подарок от PrimaNota.Ru, забирай!