PrimaNota.ru - самый крупный в мире бесплатный архив песенных текстов, аккордов, табулатур и нот


Planet Smashers - Fabricated - текст песни, бас-таба, видео

Регистрация Запомнить меня
Войти через:  Facebook Google Twitter Vk Yandex Mail.ru

Planet Smashers - Fabricated - текст песни, бас-таба, видео

Печатать
Просмотров: 124
Уроки эстрадного вокала в Санкт-Петербурге
FABRICATED 
THE PLANET SMASHERS
NO SELF CONTROL (2001)
Tabbed by: 4MWJustin
email: jtlarsen1@yahoo.com

I'm 100% certain this is correct.

INTRO

G------------------|------------------|------------------|---------------------|
D-----------5-5----|----------5-5-----|----------5-5-----|---------------------|
A---------------7--|--------------7---|--------------7---|-----3-3-3-----------|
E----5---8--------8|---5---8--------8-|---5---8--------8-|--------------3-3-3--|


HORN LINE/CHORUS

G------------------|-----------------|-----------------|-----------------|
D------------------|-----------------|-----------------|-----------------|
A--0-0-2-3---------|-3-3-3-3-5-5-3-2-|-0-0-2-3---------|-3-3-3-3-5-5-3-2-|
E----------1-1-1-1-|-----------------|---------1-1-1-1-|-----------------|

G-----------------|-----------------|------------------|-----------------|
D---------3-3-3-3-|-----------------|------------------|-----------------|
A-0-0-2-3---------|-3-3-3-3-5-5-3-2-|--0-0-2-3---------|-3-3-3-3-5-5-3-2-|
E-----------------|-----------------|----------1-1-1-1-|-----------------|

VERSE

G------------------|-----------------|-----------------|-------------------|
D--------------3---|-5-5-5-----------|-----------------|-------5-3-(3)-2---|
A------------3-----|-------5-----5---|-----------3-----|-3-3-3-----------3-|
E--1---------------|---------3-3---3-|-5-5-5-3-5---5-3-|-------------------|

G------------------|-----------------|--------------------|-------------------|
D--------------3---|-5-5-5-----------|--------------------|-------5-3-(3)-2---|
A------------3-----|-------5-----5---|-------7-5-(5)--3p0-|h3-3-3-----------3-|
E--1-1-1-1-1-------|---------3-3---3-|-5---5--------------|-------------------|

G------------------|-----------------|-----------------|-------------------|
D--------------3---|-5-5-5-----------|-----------------|-------5-3-(3)-2---|
A------------3-----|-------5-----5---|-----------3-----|-3-3-3-----------3-|
E--1-1-1-1-1-------|---------3-3---3-|-5-5-5-3-5---5-3-|-------------------|

G------------------|-----------------|-----------------|-----------------|
D--------------3---|-5-5-5-----------|-----------------|---------5-5-5-5-|
A------------3-----|-------5-----5---|---------3-3-3-3-|-3-3-3-3---------|
E--1-1-1-1-1-------|---------3-3---3-|-5-5-5-5---------|-----------------|

INTRO VARIATION

G------------------|------------------|------------------|---------------------|
D-----------5-5----|----------5-5-----|----------5-5-----|---------------------|
A----0---3------7--|--------------7---|--------------7---|-----3-3-3-----------|
E-----------------8|---5---8--------8-|---5---8--------8-|--------------3-3-3--|

FINAL CHORUS

G------------------|-----------------|-----------------|-----------------|
D------------------|-----------------|-----------------|-----------------|
A--0-0-2-3---------|-3-3-3-3-5-5-3-2-|-0-0-2-3---------|-3-3-3-3-5-5-3-2-|
E----------1-1-1-1-|-----------------|---------1-1-1-1-|-----------------|

G-----------------|-----------------|------------------|-----------------|
D---------3-3-3-3-|-----------------|------------------|-----------------|
A-0-0-2-3---------|-3-3-3-3-5-5-3-2-|--0-0-2-3---------|-3-3-3-3---------|
E-----------------|-----------------|----------1-1-1-1-|---------3-3-3-3-|

WE WILL FIGHT TO CONTROL THE TRUTH/OUTRO

G------------------|-----------------|-----------------|-----------------
D------------------|-----------------|---------3-3-3-3-|-----------------|
A--0-0-2-3---------|-3-3-3-3-5-5-3-2-|-0-0-2-3---------|-3-3-3-3---------|
E----------1-1-1-1-|-----------------|-----------------|---------3-3-3-3-|

G------------------|-----------------|-----------------|-----------------|
D------------------|-----------------|---------3-3-3-3-|-----------------|
A--0-0-2-3---------|-3-3-3-3-5-5-3-2-|-0-0-2-3---------|---3-3-3---------|
E----------1-1-1-1-|-----------------|-----------------|-----------3-3-3-|

G------------------||
D------------------||
A-0----------------||
E------------------||


SONG STRUCTURE:
INTRO
HORN LINE/CHORUS
VERSE
CHORUS
VERSE
CHORUS
INTRO VARIATION
CHORUS(x3)
FINAL CHORUS
WE WILL FIGHT TO CONTROL THE TRUTH/OUTRO

KEY:
(x): Makes no difference if articulated or held out.
h: hammer-on
p: pull-off
Добавлено: 12.07.2013
Вам также может быть интересно:
Другие материалы по этой песне:
  • Аккорды и текст

Страница создана 28.03.2012
http://primanota.ru/planet-smashers/fabricated-chords.htm
Привет, Гость.
Предлагаем пройти революционный курс по гитаре.
Подарок от PrimaNota.Ru, забирай!