PrimaNota.ru - самый крупный в мире бесплатный архив песенных текстов, аккордов, табулатур и нот


Planet Of Zeus - Woke Up Dead - таба, видео

Регистрация Запомнить меня
Войти через:  Facebook Google Twitter Vk Yandex Mail.ru

Planet Of Zeus - Woke Up Dead - таба, видео

Печатать
Просмотров: 84
-------------------------------------------------------------------------------
                             Woke Up Dead - Planet Of Zeus
-------------------------------------------------------------------------------
Tabbed by: periklis91
           this is my very first tab, so don't be too hursh. Any corrections are more than appreciated

Tuning: Drop C# ( C# G# C# F# A# D# )

      INTRO LICK               INTRO AND MAIN RIFF (played 4 times as intro and it's also the verse)
e|-----------------------||----------------------------------------------------------|
B|-----------------------||----------------------------------------------------------|
G|-----------------------||----------------------------------------------------------|  
D|---/5------------------||---2/5\2--2--2~-------2/5\2--2--2~-------2/5\2--2--2~-----|
A|--------7--5--7---5h7--||---2/5\2--2--2~---0---2/5\2--2--2~---0---2/5\2--2--2~-----|
E|-----------------------||---2/5\2--2--2~---0---2/5\2--2--2~---0---2/5\2--2--2~-----|
                                            p.m.               p.m.
e|------------------------------||---------------------------------------------------|
B|------------------------------||---------------------------------------------------|
G|------------------------------||---------------------------------------------------|
D|-------2/5--5------4/7--7-----||--------5--7-7b--5-----5---------------------------|
A|---0---2/5--5------2/5--5-----||--5--7--------------7-----7--5--5h7~~~-------5--7--|
E|---0---2/5--5-----------------||---------------------------------------------------|
    p.m.                 

e|-------------------------------||
B|-------------------------------||   
G|-------------------------------||
D|---5--7-7b--5-----5------------||
A|---------------7-----7--5h7----||
E|-------------------------------||




************************************

| /   slide up
| \   slide down
| h   hammer-on
| p   pull-off
| ~   vibrato
| +   harmonic
| x   Mute note
| b   Bend
| pb  Pre-bend
| br  Bend release
| pbr Pre-bend release
| brb Bend release bend

************************************
Добавлено: 02.08.2015
Вам также может быть интересно:
Другие материалы по этой песне:
  • Аккорды и текст

Страница создана 02.08.2015
http://primanota.ru/planet-of-zeus/woke-up-dead-chords.htm
Привет, Гость.
Предлагаем пройти революционный курс по гитаре.
Подарок от PrimaNota.Ru, забирай!