PrimaNota.ru - самый крупный в мире бесплатный архив песенных текстов, аккордов, табулатур и нот


Planet Of Zeus - Burn This City Down - таба, видео

Регистрация Запомнить меня
Войти через:  Facebook Google Twitter Vk Yandex Mail.ru

Planet Of Zeus - Burn This City Down - таба, видео

Печатать
Просмотров: 120
Burn This City Down - Planet Of Zeus

Tuning: Drop C#


intro-riff

---------------------------------------------------------------------------------------
---------------------------------------------------------------5~-------------------7~-
--------5b5.5--------------------------------------------------5~-------------------7~-
-5h6h7--5b5.5--7--x--x-x-----5-x-x-----5-----------------------5~-------------------7~-
-5h6h7---------7--x--x-x--6h7--x-x-6h7----7--3h5-5-5-3b3.5-0-------3s5-5-5-5h7p5-0-----
--------------------------------------------------------------------------------------- 


verse

---------------------------------------------------------------------
---------------------------------------------------------------------
---------------------------------------------------------------------
-5-6-7-7---------------------------5-6-7-7---------------------------
-5-6-7-7---------------------------5-6-7-7---------------------------
-5-6-7-7---10-11-12-0-10-0-10-12~--5-6-7-7---10-11-12-0-10-0-12-10~--


end on

----------------------
----------------------
----------------------
-5-6-7-7---5-6-7-7----
-5-6-7-7---5-6-7-7----
-5-6-7-7---5-6-7-7----
 

chorus same as riff

verse

end 2nd verse on

--------------------------------------------
-----------------8-----8--8--8--8--8--8--8--
-----------------10b12-12-12-12-12-12-12-12-
-5-6-7-7---12~------------------------------
-5-6-7-7---12~------------------------------
-5-6-7-7---12~------------------------------


chorus


bridge

---------------------------
---------------------------
---------------------------
---------------------------
------------------3p0------
-1s2-5-x-x-1s2-5------5-7--


solo

--------------------------------------------------------------------------------------------------------
-5---(strum 16ths and slowly bend)----------------------------------------------------------------------
-7b9--------------------------------7b9r7-5-7b9r7-5-7b9r7-5-7b9r7-5-7b9r7-5----5------------------------
----------------------------------------------------------------------------------7-5-7-----5-----------
-----------------------------------------------------------------------------------------6-7-h7-5-0-3-0-
--------------------------------------------------------------------------------------------------------
                                                                                  * *    * *

-------------------------------------------------------------------------------------5----5------------
-------------------------------------------------------------------------------------------------------
------------------------------------------------------------------------5-7-5-7-5-7b9--7b9--7b9~-------
----------------------------------------------------------7-5-7-5---5-7--------------------------------
-3-sq5b6r5-3-sq5b6r5-3-sq5b6r5-3-5///-----5-3-5-3-5-3-5-7---------7------------------------------------
-------------------------------------------------------------------------------------------------------
                                          * * * * * * * * * * * * * * * * * * * 

----------------------------55577788810101012121215151515b17~--15--12h15-12~--
--8b10--5---------------------------------------------------------------------
----------7-5-sq7b9--5---5----------------------------------------------------
-----------------------7------------------------------------------------------
------------------------------------------------------------------------------
------------------------------------------------------------------------------


interlude (let all notes ring)

------------------------------------------------
-----1------3-------5---------8-----5------7----
------------------------------------------------
---2-----2s4----4s5--------7s9--9s5----5s7------
-0-----0------0----------0-----------0----------
------------------------------------------------ x2

chorus x2

end on bridge
Добавлено: 02.08.2015
Другие материалы по этой песне:
  • Аккорды и текст

Страница создана 02.08.2015
http://primanota.ru/planet-of-zeus/burn-this-city-down-chords.htm
Привет, Гость.
Предлагаем пройти революционный курс по гитаре.
Подарок от PrimaNota.Ru, забирай!