PrimaNota.ru - самый крупный в мире бесплатный архив песенных текстов, аккордов, табулатур и нот


Planes Mistaken For Stars - Legs - таба, видео

Регистрация Запомнить меня
Войти через:  Facebook Google Twitter Vk Yandex Mail.ru

Planes Mistaken For Stars - Legs - таба, видео

Печатать
Просмотров: 88
Уроки эстрадного вокала в Санкт-Петербурге
Sorry that I cannot choose the name Steve Forrest (Planes) that I used Planes mistaker. 
That music is on youtube - Road two - Planes (Steve Forrest)
 - Legs

e ||-------------------------------------||
B ||-------------------------------------||
G ||----------------------------6--------||
D ||------7-9-----7-9-----7-9-----9-7----||
A ||----9-------7-------5----------------||
E ||-------------------------------------||

e ||-------------------------------------||
B ||-------------------------------------||
G ||----------------------------6--------||
D ||------7-9-----7-9-----7-9-------9----||
A ||----9-------7-------5---------9------||
E ||-------------------------------------||
Добавлено: 01.01.2016
Другие материалы по этой песне:
  • Аккорды и текст

Страница создана 01.01.2016
http://primanota.ru/planes-mistaken-for-stars/legs-chords.htm
Привет, Гость.
Предлагаем пройти революционный курс по гитаре.
Подарок от PrimaNota.Ru, забирай!