PrimaNota.ru - самый крупный в мире бесплатный архив песенных текстов, аккордов, табулатур и нот


План Ломоносова - Фото Панк - аккорды и текст, видео

Регистрация Запомнить меня
Войти через:  Facebook Google Twitter Vk Yandex Mail.ru

План Ломоносова - Фото Панк - аккорды и текст, видео

Печатать
Просмотров: 695
Уроки эстрадного вокала в Санкт-Петербурге
Фото Панк
План Ломоносова
Вступление:C#5 G#5 A#5 A#5

C#5 G#5 A#5 A#5
Пью на Красной Площади
Красивое вино.
К Мавзолею очередь,
Еще не так темно.
Темно в уме, к несчастию.
Зато, в душе светло,
Вчерашнее причастие
Немного помогло.
Искажает зрение
Соленая слеза,
Акт самосожжения
Попался на глаза.
Пламя лезло клочьями,
Сбили, наконец.
К Мавзолею очередь -
Вот, это, блядь, пиздец!

G#5 F#5 5 F#5
Сфотографировал!
Вроде, все получилось.
Пленку дома сменю,
Лишь бы не засветилась!
Половина из этого
Мне, по-моему, приснилась.
Короче то, чего не было,
В кадр не поместилось!

G#5 F#5
Поменяю объектив,
C#5
Но точку зрения свою,
Еще 1000 лет прожив,
Не продую, не пропью!

Черно-белый негатив,
Чтобы не случилось в мире,
Превратится в позитив
В моей крошечной квартире!

Рюкзак - 3 отделения;
На плечи давят лупы.
Пришел на выступление
Моей любимой группы!
В толпе девчонку выудил,
Я к счастью не в говно!
Сухой закон я выучил,
Сухое пью вино.
Орали вместе, прыгали,
Болтали без умолку,
В конце носами шмыгали
И целовались долго.
С отличием бросил ВУЗы - ну,
Признался я ребенку!
Люблю живую музыку,
Люблю снимать на пленку.

Сфотографировал!
Круто все получились!
Музыканты балдели,
Зрители веселились!
Еще две пьяные бабы
На барной стойке резвились,
Но фуфло и пошлятина
В кадр не поместились!

Поменяю объектив,
Но точку зрения свою,
Еще 1000 лет прожив,
Не продую, не пропью!

Черно-белый негатив,
Чтобы не случилось в мире,
Превратится в позитив
В моей крошечной квартире!

e|----------------------------------------------------- 
b|------------------------------------------------------
g|-----------------5------------------------------------
d|------6---4--6-----6----6--6--4--6--4------------- (х4)
a|------------------------------------------------------
E|------------------------------------------------------

e|--------------------------------------------------------
b|--------------------------------------------------------
g|--------------------------------------------------------
d|-----------------------5------------------------------- (х2)
a|-------9--------4--6------------9----------4--6--4(6)-
E|--4-------4----------------4---------4----------------

Поменяю объектив,
Но точку зрения свою,
Еще 1000 лет прожив,
Не продую, не пропью!

Черно-белый негатив,
Чтобы не случилось в мире,
Превратится в позитив
В моей крошечной квартире!
Добавлено: 10.07.2015
Другие материалы по этой песне:
  • Аккорды и текст

Страница создана 10.07.2015
http://primanota.ru/plan-lomonosova/foto-pank-chords.htm
Привет, Гость.
Предлагаем пройти революционный курс по гитаре.
Подарок от PrimaNota.Ru, забирай!