PrimaNota.ru - самый крупный в мире бесплатный архив песенных текстов, аккордов, табулатур и нот


Plain White Ts - You Belong - таба, видео

Регистрация Запомнить меня
Войти через:  Facebook Google Twitter Vk Yandex Mail.ru

Plain White Ts - You Belong - таба, видео

Печатать
Просмотров: 82
Уроки эстрадного вокала в Санкт-Петербурге
-------------------------------------------------------------------------------
                             You Belong - Plain White T's
-------------------------------------------------------------------------------
Tabbed by: NightmareZV
E-mail: ricardo_95_378@hotmail.com

Tuning: Standard E

Hello, this is my first tab. I played the song by ear, so might be correct, might have mistakes.
But it has not a lot of changes, so actually it's pretty simple.

Intro:
e|-------------------------------------------------------------------------------|
B|-------------------------------------------------------------------------------|
G|--------------4--------------------3--------------------4----------------------|
D|------4--4/6-----6\4-------3--3/4-----4\3-------4--4/6-----6\4------3-4-3------|
A|---6--------------------4--------------------6--------------------4-------6-4--|
E|-------------------------------------------------------------------------------|

Verse/Pre-Chorus/Chorus:
e|-------------------------------------------------------------------------------|
B|-------------------------------------------------------------------------------|
G|--------------4--------------------3--------------------4----------------------|
D|------4--4/6-----6\4-------3--3/4-----4\3-------4--4/6-----6\4------3-4-3------|
A|---6--------------------4--------------------6--------------------4-------6-4--|
E|-------------------------------------------------------------------------------|

e|-------------------------------------------------------------------------------|
B|-------------------------------------------------------------------------------|
G|--------------4--------------------3--------------------4----------------------|
D|------4--4/6-----6\4-------3--3/4-----4\3-------4--4/6-----6\4-------3--4-4-4--|
A|---6--------------------4--------------------6--------------------4------------|
E|-------------------------------------------------------------------------------|

In the 2nd and 3rd chorus and at the end of the song,
you play the 4th fret of the string D four times instead of three.
Then reapeat again.

Bridge:
e|---------------------------------------------------------------------|
B|---------------------------------------------------------------------|
G|------4----4---4-------4----4---4------------------------------------|
D|---6-----6---6------6-----6---6---------4----4---4-------4----4---4--|
A|-------------------------------------6-----6---6------6-----6---6----|
E|---------------------------------------------------------------------|

e|---------------------------------------------------------------------|
B|---------------------------------------------------------------------|
G|------4----4---4-------4----4---4------------------------------------|
D|---6-----6---6------6-----6---6---------4----4---4-------3----3---3--|
A|-------------------------------------6-----6---6------4-----4---4----|
E|---------------------------------------------------------------------|

e|---------------------------------------------------------------------|
B|---------------------------------------------------------------------|
G|------4----4---4-------4----4---4------------------------------------|
D|---6-----6---6------6-----6---6---------4----4---4-------4----4---4--|
A|-------------------------------------6-----6---6------6-----6---6----|
E|---------------------------------------------------------------------|

e|-------------------|
B|-------------------|
G|o-----------------o| x4
D|o-----3----3---3--o|
A|---4-----4---4-----|
E|-------------------|

e|-------------------------------------------------------------------------------|
B|-------------------------------------------------------------------------------|
G|--------------4--------------------3--------------------4----------------------|
D|------4--4/6-----6\4-------3--3/4-----4\3-------4--4/6-----6\4------3-4-3------|
A|---6--------------------4--------------------6--------------------4-------6-4--|
E|-------------------------------------------------------------------------------|

So, the order would be:

Intro
Verse
Pre-Chorus
Chorus
Intro
Verse
Pre-Chorus
Chorus x2
Bridge
Intro
Chorus x3
Intro x2

The second guitar (during the intro parts) plays this:
e|--------------------------------------------------------|
B|---7--6-------------------------7--6--------------------|
G|---------8--6-8-6----------6----------8--6-8-6----------|
D|-------------------6--6/8-----------------------6--6/8--|
A|--------------------------------------------------------|
E|--------------------------------------------------------|

(This part is actually a 3rd guitar at the end of the song)
And during the chorus plays this (just after when says "songs I sing"):
e|--11--|
B|--11--|
G|------|
D|------|
A|------|
E|------|

That's the whole song. It's not so hard, is it? ^_^
Hope you enjoy it. Any correction or suggestion, please let me know.

************************************

| /   slide up
| \   slide down
| h   hammer-on
| p   pull-off
| ~   vibrato
| +   harmonic
| x   Mute note
| b   Bend
| pb  Pre-bend
| br  Bend release
| pbr Pre-bend release
| brb Bend release bend

************************************
Добавлено: 27.09.2015
Вам также может быть интересно:
Другие материалы по этой песне:
  • Аккорды и текст

Страница создана 27.09.2015
http://primanota.ru/plain-white-ts/you-belong-chords.htm
Привет, Гость.
Предлагаем пройти революционный курс по гитаре.
Подарок от PrimaNota.Ru, забирай!