PrimaNota.ru - самый крупный в мире бесплатный архив песенных текстов, аккордов, табулатур и нот


Plain White Ts - You And Me - таба, видео

Регистрация Запомнить меня
Войти через:  Facebook Google Twitter Vk Yandex Mail.ru

Plain White Ts - You And Me - таба, видео

Печатать
Просмотров: 108
Hewo.

This song hasn't got a tab, so I decided to do one, seeing as its pretty darn easy really...

All standard tuned and stuff, 2 guitars

Drum intro

Guitar 1
e|--------------------------------------------|
B|--------------------------------------------|
G|--------------------------------------------|
D|--------------------------------------------|
A|-----5-5-5--5-5-5-5-7---3-3-3-----------5---|
E|--3-------3-----------3------3--1-1-1-1-----|

e|--------------------------------------------------|
B|--------------------------------------------------|
G|--------------------------------------------------|
D|--------------------------------------------------|
A|-----5-5-5---3-3-3-3--5---3-3-3-------------------|
E|--3-------3------------0--------3--1-1-1-1-1-1-1--|

That gets played once, then guitar 2 plays this over the top:

e|-------------------------------------------------|
B|--8--8-8-8-8-8-8-8-8-10-8--8-8-8-8--6-6-6-6--10--|
G|--7--7-7-7-7-7-7-7-7-9--7--7-7-7-7--5-5-5-5--9---|
D|--5--5-5-5-5-5-5-5-5-7--5--5-5-5-5--3-3-3-3--7---|
A|-------------------------------------------------|
E|-------------------------------------------------|

e|---------------------------------------------------------|
B|--8--8-8-8-8-8-8-8-8-10-8--5-5-5-5--6-6-6-6-6-6-6-6-6----|
G|--7--7-7-7-7-7-7-7-7-9--7--4-4-4-4--5-5-5-5-5-5-5-5-5----|
D|--5--5-5-5-5-5-5-5-5-7--5--2-2-2-2--3-3-3-3-3-3-3-3-3----|
A|---------------------------------------------------------|
E|---------------------------------------------------------|

Chorus (the Minor on the D is optional)
e|----------------------------------|----|---------------------------------|
B|------------------6-6-6-6-6-6-6-6-|----|---------------------------------|
G|------------------7-7-7-7-7-7-7-7-|----|-8-8-8-8-8-8-8-8-7-7-7-7-7-7-7-7-|
D|--5-5-5-5-5-5-5-5-7-7-7-7-7-7-7-7-|-x3-|-8-8-8-8-8-8-8-8-7-7-7-7-7-7-7-7-|
A|--5-5-5-5-5-5-5-5-5-5-5-5-5-5-5-5-|then|-6-6-6-6-6-6-6-6-5-5-5-5-5-5-5-5-|
E|--3-3-3-3-3-3-3-3-----------------|----|---------------------------------|

Then the verse and chorus, then it changes to:
e|----------------------------------|----|
B|------------------8-8-8-8-8-8-8-8-|----|
G|------------------9-9-9-9-9-9-9-9-|----|
D|--7-7-7-7-7-7-7-7-9-9-9-9-9-9-9-9-|-x3-|
A|--7-7-7-7-7-7-7-7-7-7-7-7-7-7-7-7-|then|
E|--5-5-5-5-5-5-5-5-----------------|----|

Just strum these lots
e|------------------|
B|------------------|
G|-10-9-8-7-6-5-4-9-|
D|-10-9-8-7-6-5-4-9-|
A|-8--7-6-5-4-3-2-7-|
E|------------------|

Then play the verse and the chorus a couple more times, and yeah, I think thats pretty 
it. Quite easy really, isn't it?
Добавлено: 09.05.2012
Другие материалы по этой песне:
  • Аккорды и текст

Страница создана 09.05.2012
http://primanota.ru/plain-white-ts/you-and-me-chords.htm
Привет, Гость.
Предлагаем пройти революционный курс по гитаре.
Подарок от PrimaNota.Ru, забирай!