PrimaNota.ru - самый крупный в мире бесплатный архив песенных текстов, аккордов, табулатур и нот


Placebo - Trigger Happy Hands - текст песни, таба, видео

Регистрация Запомнить меня
Войти через:  Facebook Google Twitter Vk Yandex Mail.ru

Placebo - Trigger Happy Hands - текст песни, таба, видео

Печатать
Просмотров: 410
-------------------------------
Song Name: Trigger Happy Hands
Artist: Placebo
Album: Battle For The Sun (Redux Edition)
-------------------------------
Tabbed by: T.G-Tom

It's a shame no-one else tabbed this brilliant song yet, so I spend the last 3 
hours on making this tab.
You can find the guitar and bass tabs here.

In the verse, the bass goes like this.
Bend the E string a little bit when hitting the first fret.

     E  S S E    S E  S E  S S E
G||-------------------------------|
D||-------------------------------|
A||----------------------------2--|
E||--0----0-1^---1-0--0-1--0-0----|

In the second verse the guitar plays the same groove,but they only do this live.

In the Chorus, the guitar plays 16th powerchords, pretty easy.

     S S S S S S S S S S S S S S S S
E||----------------------------------|
B||----------------------------------|
G||--9-9-9-9-9-9-9-9-9-9-9-9-9-9-9-9-|
D||--9-9-9-9-9-9-9-9-9-9-9-9-9-9-9-9-|
A||--7-7-7-7-7-7-7-7-7-7-7-7-7-7-7-7-|
E||----------------------------------| x2

     S  S  S  S  S  S  S  S  S  S  S  S  S  S
E||------------------------------------------------|
B||------------------------------------------------|
G||------------------------------------------------|
D||--10-10-10-10-10-10-10-10-10-10-10-10-10-10-10--|
A||--10-10-10-10-10-10-10-10-10-10-10-10-10-10-10--|
E||---8--8--8--8--8--8--8--8--8--8--8--8--8--8--8--| x2

You can improvise a bit by playing the last 5 notes of the last bar with an 'A' powerchord

The bass part in the chorus is even less difficult.

     w                     W                   W                   W
G||---------------------|-------------------|-------------------|---------|
D||---------------------|-------------------|-------------------|---------|
A||--7------------------|--7----------------|-------------------|---------|
E||--0------------------|--0----------------|--8----------------|--8------|

Chorus Synthesizer/Guitar
  E.  E.  E  E  E  E  E        E.  E.  E  E  E  E  E
E||--7---6---5--4--3--2--1--|--0---1---2--3--4--5--6--|
B||-------------------------|-------------------------|
G||-------------------------|-------------------------|
D||-------------------------|-------------------------|
A||-------------------------|-------------------------|
E||-------------------------|-------------------------|

  E.  E.  E  E  E  E  E     E.  E.  E  E  E  E  E 
--7---6---5--4--3--2--1--|--0----------------------|
-------------------------|------4---3--2--1--0-----|
-------------------------|----------------------3--|
-------------------------|-------------------------|
-------------------------|-------------------------|
-------------------------|-------------------------|
  
Have fun with practising! ;)


Duration Legend
---------------
W - whole
H - half
Q - quarter
E - 8th
S - 16th
T - 32nd
--------------


Symbols Legend
--------------
^ - brush up
--------------
Добавлено: 28.05.2012
Другие материалы по этой песне:

Страница создана 15.04.2012
http://primanota.ru/placebo/trigger-happy-hands-chords.htm
Привет, Гость.
Предлагаем пройти революционный курс по гитаре.
Подарок от PrimaNota.Ru, забирай!