PrimaNota.ru - самый крупный в мире бесплатный архив песенных текстов, аккордов, табулатур и нот


Placebo - Second Sight - аккорды и текст, таба, бас-таба, видео

Регистрация Запомнить меня
Войти через:  Facebook Google Twitter Vk Yandex Mail.ru

Placebo - Second Sight - аккорды и текст, таба, бас-таба, видео

Печатать
Просмотров: 412
Уроки эстрадного вокала в Санкт-Петербурге
Авторы музыки: Steve Hewitt, Stefan Olsdal, Brian Molko
Авторы текста: Steve Hewitt, Stefan Olsdal, Brian Molko
Second Sight
Placebo
		   Another placebo song that you can play in standard tuning.


e------------------------------------------
b------------------------------------------
g------------------------------------------
D------------------------------------------
A---9-9-9-9-9-9-9-9---8--8--8--8-----------
E------------------------------------------
Intro/Verse 1 & 2


e------------------------------------------
b------------------------------------------
g---11-11-11-11---10-10-10-10--------------
D---11-11-11-11---10-10-10-10--------------
A---9--9--9--9----8--8--8--8---------------
E------------------------------------------x2
Chorus A

e-------------------------------------------
b-------------------------------------------
g---11-11-11-11-----11-11-11-11-------------
D-------------------------------------------
A---9--9--9---9-----8--8--8--8--------------
E-------------------------------------------x2
Chorus B


e---------------------------------------|--------
b---------------------------------------|--------
g---11--11--11--11----10--8--6-6--------|--------
D---11--11--11--11----------------------|---4----
A---9---9---9---9------8--6--4-4--------|---4----
E---------------------------------------|---2----
Bridge                                   end.1 (played after the 4th bar)


e-----------------------------------
b-----------------------------------
g-----------------------------------
D---4-4-4-4-4-4-4-4---8--8--8--8----
A---4-4-4-4-4-4-4-4---8--8--8--8----
E---2-2-2-2-2-2-2-2---6--6--6--6----
Verse 3 (comes in after 4 bars of bass)


'Second Sight'

Intro x4
Verse 1 x8
Chorus A x2
Chorus B x2
Verse 2 x8
Chorus A x2
Chorus B x2
Bridge x4
Verse 3 x4
Chorus A x2
Chorus B x2
Bridge x4     
Добавлено: 17.06.2013
Другие материалы по этой песне:

Страница создана 09.04.2012
http://primanota.ru/placebo/second-sight-chords.htm
Привет, Гость.
Предлагаем пройти революционный курс по гитаре.
Подарок от PrimaNota.Ru, забирай!