PrimaNota.ru - самый крупный в мире бесплатный архив песенных текстов, аккордов, табулатур и нот


Placebo - Peeping Tom - текст песни, таба, бас-таба, видео

Регистрация Запомнить меня
Войти через:  Facebook Google Twitter Vk Yandex Mail.ru

Placebo - Peeping Tom - текст песни, таба, бас-таба, видео

Печатать
Просмотров: 373
Авторы: Steve Hewitt, Stefan Olsdal, Brian Molko

Placebo

Peeping tom

TABBED BY FELIPE GUERRA

(my english isn't very good because i speak spanish but i hope you understand)

(the guitar II is the piano)


intro

Guitar I (Stefan)
 e-------------------------------------------------------------------|
b-----------14--14----------14--14---------14--14-----------14—14----|
g--11--11-----------11--11----------11--11----------11--11-----------|
d--------------------------------------------------------------------|
a--------------------------------------------------------------------|
e--------------------------------------------------------------------|

e----------------------------------------------------------------|
b-----------11--11----------11--11---------11--11----------11—11-|
g---10--10----------10--10----------10--10---------10--10--------|
d----------------------------------------------------------------|
a----------------------------------------------------------------|
e----------------------------------------------------------------|


------------------------------------------------------------------------------------

Guitar 1 ( now Star the piano) 00:12

e---------------------------------------------------------------|
b----------14--14----------14--14---------14--14---------14--14-|
g--11--11----------11--11---------11--11----------11--11--------|
d---------------------------------------------------------------|
a---------------------------------------------------------------|
e---------------------------------------------------------------|

Guitar 2(piano) Bryan

e-------------------------------------------------------------|
b----11--9--7-------11--9--7-------11--9--7------11--9--7-----|
g--11-----------11--------------11------------11--------------|
d-------------------------------------------------------------|
a-------------------------------------------------------------|
e-------------------------------------------------------------|

------------------------------------------------------------------------------------


guitar 1
e----------------------------------------------------------------|
b-----------11--11----------11--11---------11--11----------11—11-|
g---10--10----------10--10----------10--10---------10--10--------|
d----------------------------------------------------------------|
a----------------------------------------------------------------|
e----------------------------------------------------------------|

guitar 2 (piano)

e----------------------------------------------------------------|
b---------11--11--------11--11-------11--11--------11—11---------|
g---10--------------10------------10-----------10----------------|
d----------------------------------------------------------------|
a----------------------------------------------------------------|
e----------------------------------------------------------------|


-------------------------------------------------------------------------------------


guitar 1

e---------------------------------------------------------------|
b----------14--14----------14--14---------14--14---------14--14-|
g--11--11----------11--11---------11--11----------11--11--------|
d---------------------------------------------------------------|
a---------------------------------------------------------------|
e---------------------------------------------------------------|

Guitar 2(piano)

e-------------------------------------------------------------|
b----11--9--7-------11--9--7-------11--9--7------11--9--7-----|
g--11-----------11--------------11------------11--------------|
d-------------------------------------------------------------|
a-------------------------------------------------------------|
e-------------------------------------------------------------|

------------------------------------------------------------------------------------




guitar 1
e----------------------------------------------------------------|
b-----------11--11----------11--11---------11--11----------11—11-|
g---10--10----------10--10----------10--10---------10--10--------|
d----------------------------------------------------------------|
a----------------------------------------------------------------|
e----------------------------------------------------------------|

guitar 2 (piano)

e----------------------------------------------------------------|
b---------11--11--------11--11-------11--11--------11—11---------|
g---10--------------10------------10-----------10----------------|
d----------------------------------------------------------------|
a----------------------------------------------------------------|
e----------------------------------------------------------------|


(now brian star to sing

(sorry , I haven't the letter)

guitar 2(piano) 00:35

e-------------------------------------------------------------|
b----11--9--7-------11--9--7-------11--9--7------11--9--7-----|
g--11-----------11--------------11------------11--------------|
d-------------------------------------------------------------|
a-------------------------------------------------------------|
e-------------------------------------------------------------|

guitar 2 (piano)
e-------------------------------------------------------------------|
b---------11--11--------11--11-------11--11--------11—11------------|
g---10--------------10------------10-----------10-------------------|
d-------------------------------------------------------------------|
a-------------------------------------------------------------------|
e-------------------------------------------------------------------|  x2

------------------------------------------------------------------------------------




(now star the guitar) 00:59

guitar 1

 e--------------------------------------------------------------------|
b-----------14--14----------14--14---------14--14-----------14---14---|
g--11--11-----------11--11----------11--11----------11--11------------|
d---------------------------------------------------------------------|
a---------------------------------------------------------------------|
e---------------------------------------------------------------------|

guitar 2 (piano)

e-------------------------------------------------------------|
b----11--9--7-------11--9--7-------11--9--7------11--9--7-----|
g--11-----------11--------------11------------11--------------|
d-------------------------------------------------------------|
a-------------------------------------------------------------|
e-------------------------------------------------------------|

--------------------------------------------------------------------------------


guitar 1
e----------------------------------------------------------------|
b-----------11--11----------11--11---------11--11----------11—11-|
g---10--10----------10--10----------10--10---------10--10--------|
d----------------------------------------------------------------|
a----------------------------------------------------------------|
e----------------------------------------------------------------|

guitar 2 (piano)
e----------------------------------------------------------------|
b---------11--11--------11--11-------11--11--------11—11---------|
g---10--------------10------------10-----------10----------------|
d----------------------------------------------------------------|
a----------------------------------------------------------------|
e----------------------------------------------------------------|


--------------------------------------------------------------------------------




guitar 1

 e--------------------------------------------------------------------|
b-----------14--14----------14--14---------14--14-----------14---14---|
g--11--11-----------11--11----------11--11----------11--11------------|
d---------------------------------------------------------------------|
a---------------------------------------------------------------------|
e---------------------------------------------------------------------|

guitar 2 (piano)

e-------------------------------------------------------------|
b----11--9--7-------11--9--7-------11--9--7------11--9--7-----|
g--11-----------11--------------11------------11--------------|
d-------------------------------------------------------------|
a-------------------------------------------------------------|
e-------------------------------------------------------------|

--------------------------------------------------------------------------------


guitar 1
e----------------------------------------------------------------|
b-----------11--11----------11--11---------11--11----------11—11-|
g---10--10----------10--10----------10--10---------10--10--------|
d----------------------------------------------------------------|
a----------------------------------------------------------------|
e----------------------------------------------------------------|

guitar 2 (piano)
e----------------------------------------------------------------|
b---------11--11--------11--11-------11--11--------11—11---------|
g---10--------------10------------10-----------10----------------|
d----------------------------------------------------------------|
a----------------------------------------------------------------|
e----------------------------------------------------------------|


--------------------------------------------------------------------------------





chorus  1:20

guitar 2 (piano)
e--------------------------------------------------------------|
b-----------14-----7---11-----------16----7--7-----------------|
g--11--11---------------------11-------------------------------|
d--------------------------------------------------------------|
a--------------------------------------------------------------|
e--------------------------------------------------------------|

-----------------------------------------------------------------------------------

guitar 2 (piano)
e--------------------------------------------------------------|
b-----------14-----7---11-----------16----7--7-----------------|
g--11--11---------------------11-------------------------------|
d--------------------------------------------------------------|
a--------------------------------------------------------------|
e--------------------------------------------------------------|


-----------------------------------------------------------------------------------

(now star the guitar) 1:32

guitar 1
e------------------------------------------------------------------------|
b-------------16--16---------------------11--11--------------------------|
g---------------------------11--11---------------------------------------|
d------------------------------------------------------------------------|
a------------------------------------------------------------------------|
e------------------------------------------------------------------------|

guitar 2 (piano)
e---------------------------------------------------------------|
b-----------14-----7---11-----------16----7--7------------------|
g--11--11---------------------11--------------------------------|
d---------------------------------------------------------------|
a---------------------------------------------------------------|
e---------------------------------------------------------------|

-------------------------------------------------------------------------------------


guitar 1
e------------------------------------------------------------------------|
b-------------16--16---------------------11--11--------------------------|
g---------------------------11--11---------------------------------------|
d------------------------------------------------------------------------|
a------------------------------------------------------------------------|
e------------------------------------------------------------------------|

guitar 2 (piano)
e--------------------------------------------------------------|
b-----------14-----7---11-----------16----7--7-----------------|
g--11--11---------------------11-------------------------------|
d--------------------------------------------------------------|
a--------------------------------------------------------------|
e--------------------------------------------------------------|

------------------------------------------------------------------------------------

verse  1:42

Guitar 1
e---------------------------------------------------------------|
b----------14--14----------14--14---------14--14---------14--14-|
g--11--11----------11--11---------11--11----------11--11--------|
d---------------------------------------------------------------|
a---------------------------------------------------------------|
e---------------------------------------------------------------|

Guitar 2(piano) Bryan

e-------------------------------------------------------------|
b----11--9--7-------11--9--7-------11--9--7------11--9--7-----|
g--11-----------11--------------11------------11--------------|
d-------------------------------------------------------------|
a-------------------------------------------------------------|
e-------------------------------------------------------------|

------------------------------------------------------------------------------




guitar 1
e----------------------------------------------------------------|
b-----------11--11----------11--11---------11--11----------11—11-|
g---10--10----------10--10----------10--10---------10--10--------|
d----------------------------------------------------------------|
a----------------------------------------------------------------|
e----------------------------------------------------------------|

guitar 2 (piano)

e----------------------------------------------------------------|
b---------11--11--------11--11-------11--11--------11—11---------|
g---10--------------10------------10-----------10----------------|
d----------------------------------------------------------------|
a----------------------------------------------------------------|
e----------------------------------------------------------------|


------------------------------------------------------------------------------


Guitar 1
e---------------------------------------------------------------|
b----------14--14----------14--14---------14--14---------14--14-|
g--11--11----------11--11---------11--11----------11--11--------|
d---------------------------------------------------------------|
a---------------------------------------------------------------|
e---------------------------------------------------------------|

Guitar 2(piano) Bryan

e-------------------------------------------------------------|
b----11--9--7-------11--9--7-------11--9--7------11--9--7-----|
g--11-----------11--------------11------------11--------------|
d-------------------------------------------------------------|
a-------------------------------------------------------------|
e-------------------------------------------------------------|

------------------------------------------------------------------------------




guitar 1
e----------------------------------------------------------------|
b-----------11--11----------11--11---------11--11----------11—11-|
g---10--10----------10--10----------10--10---------10--10--------|
d----------------------------------------------------------------|
a----------------------------------------------------------------|
e----------------------------------------------------------------|

guitar 2 (piano)

e----------------------------------------------------------------|
b---------11--11--------11--11-------11--11--------11—11---------|
g---10--------------10------------10-----------10----------------|
d----------------------------------------------------------------|
a----------------------------------------------------------------|
e----------------------------------------------------------------|


-------------------------------------------------------------------------------


Guitar 1  2:06(now the guitar play with effect but i don't know what is the effect)

e---------------------------------------------------------------|
b----------14--14----------14--14---------14--14---------14--14-|
g--11--11----------11--11---------11--11----------11--11--------|
d---------------------------------------------------------------|
a---------------------------------------------------------------|
e---------------------------------------------------------------|

Guitar 2(piano) Bryan

e-------------------------------------------------------------|
b----11--9--7-------11--9--7-------11--9--7------11--9--7-----|
g--11-----------11--------------11------------11--------------|
d-------------------------------------------------------------|
a-------------------------------------------------------------|
e-------------------------------------------------------------|

------------------------------------------------------------------------------





guitar 1
e----------------------------------------------------------------|
b-----------11--11----------11--11---------11--11----------11—11-|
g---10--10----------10--10----------10--10---------10--10--------|
d----------------------------------------------------------------|
a----------------------------------------------------------------|
e----------------------------------------------------------------|

guitar 2 (piano)

e----------------------------------------------------------------|
b---------11--11--------11--11-------11--11--------11—11---------|
g---10--------------10------------10-----------10----------------|
d----------------------------------------------------------------|
a----------------------------------------------------------------|
e----------------------------------------------------------------|

---------------------------------------------------------------------------------
Guitar 1

e---------------------------------------------------------------|
b----------14--14----------14--14---------14--14---------14--14-|
g--11--11----------11--11---------11--11----------11--11--------|
d---------------------------------------------------------------|
a---------------------------------------------------------------|
e---------------------------------------------------------------|

Guitar 2(piano) Bryan

e-------------------------------------------------------------|
b----11--9--7-------11--9--7-------11--9--7------11--9--7-----|
g--11-----------11--------------11------------11--------------|
d-------------------------------------------------------------|
a-------------------------------------------------------------|
e-------------------------------------------------------------|

------------------------------------------------------------------------------





guitar 1
e----------------------------------------------------------------|
b-----------11--11----------11--11---------11--11----------11—11-|
g---10--10----------10--10----------10--10---------10--10--------|
d----------------------------------------------------------------|
a----------------------------------------------------------------|
e----------------------------------------------------------------|

guitar 2 (piano)

e----------------------------------------------------------------|
b---------11--11--------11--11-------11--11--------11—11---------|
g---10--------------10------------10-----------10----------------|
d----------------------------------------------------------------|
a----------------------------------------------------------------|
e----------------------------------------------------------------|


(and now the chorus, in this chorus you have to repeat a lot and in the original song 
can listen another guitar , this guitar touch something like this)
chorus 2:29

Fm#
guitar 2 (piano)
e--------------------------------------------------------------|
b-----------14-----7---11-----------16----7--7-----------------|
g--11--11---------------------11-------------------------------|
d--------------------------------------------------------------|
a--------------------------------------------------------------|
e--------------------------------------------------------------|

-----------------------------------------------------------------------------------


Fm#7*
guitar 2 (piano)
e--------------------------------------------------------------|
b-----------14-----7---11-----------16----7--7-----------------|
g--11--11---------------------11-------------------------------|
d--------------------------------------------------------------|
a--------------------------------------------------------------|
e--------------------------------------------------------------|


-----------------------------------------------------------------------------------




Fm#
guitar 1
e------------------------------------------------------------------------|
b-------------16--16---------------------11--11--------------------------|
g---------------------------11--11---------------------------------------|
d------------------------------------------------------------------------|
a------------------------------------------------------------------------|
e------------------------------------------------------------------------|

guitar 2 (piano)
e---------------------------------------------------------------|
b-----------14-----7---11-----------16----7--7------------------|
g--11--11---------------------11--------------------------------|
d---------------------------------------------------------------|
a---------------------------------------------------------------|
e---------------------------------------------------------------|

-------------------------------------------------------------------------------------

Fm#7*
guitar 1
e------------------------------------------------------------------------|
b-------------16--16---------------------11--11--------------------------|
g---------------------------11--11---------------------------------------|
d------------------------------------------------------------------------|
a------------------------------------------------------------------------|
e------------------------------------------------------------------------|

guitar 2 (piano)
e--------------------------------------------------------------|
b-----------14-----7---11-----------16----7--7-----------------|
g--11--11---------------------11-------------------------------|
d--------------------------------------------------------------|
a--------------------------------------------------------------|
e--------------------------------------------------------------|

------------------------------------------------------------------------------------

Chords:

Fm#:9-911-11-9-9

Fm#7*:9-9-9-10-11-9

Enjoy the song, and sorry the English, any question to fgt_hey6@hotmail.com
Добавлено: 21.02.2012
Другие материалы по этой песне:

Страница создана 21.02.2012
http://primanota.ru/placebo/peeping-tom-chords.htm
Привет, Гость.
Предлагаем пройти революционный курс по гитаре.
Подарок от PrimaNota.Ru, забирай!