PrimaNota.ru - самый крупный в мире бесплатный архив песенных текстов, аккордов, табулатур и нот


Placebo - Long Division - текст песни, таба, видео

Регистрация Запомнить меня
Войти через:  Facebook Google Twitter Vk Yandex Mail.ru

Placebo - Long Division - текст песни, таба, видео

Печатать
Просмотров: 347
Уроки эстрадного вокала в Санкт-Петербурге
-------------------------------------------------------------------------------
                             LONG DIVISION- Placebo
-------------------------------------------------------------------------------
Tabbed by: Luis Gustavo Hernández Collado
Email:ltavo_87@hotmail.com

Tuning:DADGBe

Intro
e|-------------------------------------------------------------|
B|-------------------------------------------------------------|
G|-------------------------------------------------------------|
D|---10---10-101010---10-6---6-666---6-8-8-8-8-6-6-6-6--6-8-PM-|
A|--8-----8--8-8-8----8--4---4-444---4-6-6-6-6-6-6-6-6--6-6----|
D|-8----8-8--8-8-8--8-8--4-4-4-444-4-4-6-6-6-6-6-6-6-6--6-6----|
PM=Palm Mute

Verse 1 X2
(well I was lost in conversation...)
e|---------------------------------------|
B|---------------------------------------|
G|---------------------------------------|
D|-10-10101010-10-10101010-6-6666-6-6666-|
A|-8--8-8-8-8--8--8-8-8-8--4-4444-4-4444-|
D|-8--8-8-8-8--8--8-8-8-8--4-4444-4-4444-|

e|---------------------------------------|
B|---------------------------------------|
G|---------------------------------------|
D|-8-8888-8-8888--6-6666-6-6666---6-8-PM-|
A|-6-6666-6-6666--6-6666-6-6666---6-6----|
D|-6-6666-6-6666--6-6666-6-6666---6-6----|
PM= Palm Mute

Chorus
(then multiply...)
e|--------------------------------------------|
B|--------------------------------------------|
G|--------------------------------------------|X2
D|-11--11---10------8-------6---8---6---4-----|
A|-8------8----8------6-----4-----4---4---4---|
D|-8r-(8)---(8)/-(6)--------4r-(4)---(4)--(4)-|
r=let ring

Verse 2 X2
(well I was lost in contemplation...)
e|---------------------------------------|
B|---------------------------------------|
G|---------------------------------------|
D|-10-10101010-10-10101010-6-6666-6-6666-|
A|-8--8-8-8-8--8--8-8-8-8--4-4444-4-4444-|
D|-8--8-8-8-8--8--8-8-8-8--4-4444-4-4444-|

e|---------------------------------------|
B|---------------------------------------|
G|---------------------------------------|
D|-8-8888-8-8888--6-6666-6-6666---6-8-PM-|
A|-6-6666-6-6666--6-6666-6-6666---6-6----|
D|-6-6666-6-6666--6-6666-6-6666---6-6----|

Chorus
(the multiply...)
e|--------------------------------------------|
B|--------------------------------------------|
G|--------------------------------------------|X2
D|-11--11---10------8-------6---8---6---4-----|
A|-8------8----8------6-----4-----4---4---4---|
D|-8r-(8)---(8)/-(6)--------4r-(4)---(4)--(4)-|
r=let ring

Interlude
(and your love for me will die...)
e|------------------------------------------------------------------|
B|------------------------------------------------------------------|
G|------------------------------------------------------------------|
D|-10--11--13-11-10-6-8-10-8-6-10--11--13-15-15/16/15-13-11-10-8-10r|
A|-8---8r-(8)-------4-4--------8---8r-(8)---------------------------|
D|-8---8r-(8)-------4-4--------8---8r-(8)---------------------------|
r=let ring

Outro
e|-------------------------------------------------------------------|
B|-------------------------------------------------------------------|
G|-------------------------------------------------------------------|
D|-10--11--13-11-10-6-8-10-8-6-10--11--13-15-15/16/15-13-11-10-8-10PM|
A|-8---8r-(8)-------4-4--------8---8r-(8)----------------------------|
D|-8---8r-(8)-------4-4--------8---8r-(8)----------------------------|
PM=Palm Mute
Добавлено: 26.05.2012
Другие материалы по этой песне:
  • Аккорды и текст

Страница создана 26.05.2012
http://primanota.ru/placebo/long-division-chords.htm
Привет, Гость.
Предлагаем пройти революционный курс по гитаре.
Подарок от PrimaNota.Ru, забирай!