PrimaNota.ru - самый крупный в мире бесплатный архив песенных текстов, аккордов, табулатур и нот


Placebo - Kitty Litter - текст песни, таба, видео

Регистрация Запомнить меня
Войти через:  Facebook Google Twitter Vk Yandex Mail.ru

Placebo - Kitty Litter - текст песни, таба, видео

Печатать
Просмотров: 568
Авторы музыки: Bill Lloyd, Steve Forrest, Stefan Olsdal, Brian Molko
Авторы текста: Bill Lloyd, Steve Forrest, Stefan Olsdal, Brian Molko
---------------------------------------------------------------------------
                             PLACEBO - Kitty Litter
---------------------------------------------------------------------------
Tabbed by: Alex Irae
Email: alexirae@gmail.com

Tuning: D A D G B E

Verse:
E|-------------------------------------------------------------------|
B|-------------------------------------------------------------------|
G|--5---7----7/8-8-8-8-8-8-8-8~-8-8-8-8----7---5-5-5-5-5-5-5-5-5-5---|
D|-------------------------------------------------------------------|
A|--3---5----5/6-6-6-6-6-6-6-6~-6-6-6-6----5---3-3-3-3-3-3-3-3-3-3---|
D|-------------------------------------------------------------------|

E|-------------------------------------------------------------------|
B|-------------------------------------------------------------------|
G|--5---7----7/8-8-8-8-8-8-8-8~-8-8-8-8----7---9-9-9-9-9-9-9-9-9-9---|
D|---------------------------------------------7-7-7-7-7-7-7-7-7-7---|
A|--3---5----5/6-6-6-6-6-6-6-6~-6-6-6-6----5---7-7-7-7-7-7-7-7-7-7---|
D|---------------------------------------------7-7-7-7-7-7-7-7-7-7---|



Pre-Chorus:
E|--------------------------------------------|
B|--------------------------------------------|
G|-17-17-17---10-12-14---10/12--10/12---------|
D|--------------------------------------------|    X3
A|-15-15-15---7--10-12---7-/10--7-/10---------|
D|--------------------------------------------|  

E|--------------------------------------------|
B|--------------------------------------------|
G|-17-17-17---10-12--14---20-20-19-19-19------|
D|--------------------------------------------|
A|-15-15-15---7--10--12---18-18-17-17-17------|
D|--------------------------------------------|    



Chorus:
E|-----------------------------------------------------------------------|
B|-----------------------------------------------------------------------|
G|-9-9-9-9-9-9-9-9-9-9-9-9-9-9-9-9---7-7-7-7-7-7-7-7-7-7-7-7-7-7-7-7-----|
D|-7-7-7-7-7-7-7-7-7-7-7-7-7-7-7-7---5-5-5-5-5-5-5-5-5-5-5-5-5-5-5-5-----|
A|-7-7-7-7-7-7-7-7-7-7-7-7-7-7-7-7---5-5-5-5-5-5-5-5-5-5-5-5-5-5-5-5-----|
D|-7-7-7-7-7-7-7-7-7-7-7-7-7-7-7-7---5-5-5-5-5-5-5-5-5-5-5-5-5-5-5-5-----|

E|-----------------------------------------------------------------------|
B|-----------------------------------------------------------------------|
G|-6-6-6-6-6-6-6-6-6-6-6-6-6-6-6-6---5-5-5-5-5-5-5-5-5-5-5-5-5-5-5-5-----|
D|-4-4-4-4-4-4-4-4-4-4-4-4-4-4-4-4---3-3-3-3-3-3-3-3-3-3-3-3-3-3-3-3-----|
A|-4-4-4-4-4-4-4-4-4-4-4-4-4-4-4-4---3-3-3-3-3-3-3-3-3-3-3-3-3-3-3-3-----|
D|-4-4-4-4-4-4-4-4-4-4-4-4-4-4-4-4---3-3-3-3-3-3-3-3-3-3-3-3-3-3-3-3-----|


//OPTIONAL: "2nd Guitar Chorus Variations"

2nd Guitar (1st Chorus variation):

E|-----------------------------------------------------|
B|-----------------------------------------------------|
G|-14-14-14-14-14-14-14-14-14-14-14-14-14-14-14-14-----|
D|-----------------------------------------------------|
A|-12-12-12-12-12-12-12-12-12-12-12-12-12-12-12-12-----|
D|-----------------------------------------------------|

E|-----------------------------------------------------|
B|-----------------------------------------------------|
G|-12-12-12-12-12-12-12-12-12-12-12-12-12-12-12-12-----|
D|-----------------------------------------------------|
A|-10-10-10-10-10-10-10-10-10-10-10-10-10-10-10-10-----|
D|-----------------------------------------------------|

E|-----------------------------------------------------|
B|-----------------------------------------------------|
G|-11-11-11-11-11-11-11-11-11-11-11-11-11-11-11-11-----|
D|-----------------------------------------------------|
A|-9--9--9--9--9--9--9--9--9--9--9--9--9--9--9--9------|
D|-----------------------------------------------------|

E|-----------------------------------------------------|
B|-----------------------------------------------------|
G|-10-10-10-10-10-10-10-10-10-10-10-10-10-10-10-10-----|
D|-----------------------------------------------------|
A|-8--8--8--8--8--8--8--8--8--8--8--8--8--8--8--8------|
D|-----------------------------------------------------|


E|-----------------------------------------------------|
B|-----------------------------------------------------|
G|-14-14-14-14-14-14-14-14-14-14-14-14-14/17-17-17-----|
D|-----------------------------------------------------|
A|-12-12-12-12-12-12-12-12-12-12-12-12-12/15-15-15-----|
D|-----------------------------------------------------|

E|--------------------------------------------------------------------------|
B|--------------------------------------------------------------------------|
G|-17\7-7-7-7-7-7-7-7-7-7-7-7-7-7/9-9-9---7-7-7-7-7-7-7-7-7-7-7-7-7-7/9-9-9-|
D|--------------------------------------------------------------------------|
A|-15\5-5-5-5-5-5-5-5-5-5-5-5-5-5/7-7-7---5-5-5-5-5-5-5-5-5-5-5-5-5-5/7-7-7-|
D|--------------------------------------------------------------------------|

E|----------------------------------------|
B|----------------------------------------|
G|-5-5-5-5-5-5-5-5-5-5-5-5-5--5-4-4-4-----|
D|----------------------------------------|
A|-3-3-3-3-3-3-3-3-3-3-3-3-3--3-2-2-2-----|
D|----------------------------------------|

2nd Guitar (2nd Chorus variation):

E|-----------------------------------------------------|
B|-----------------------------------------------------|
G|-2--2--2--2--2--2--2--2--2--2--2--2--2/5--5--5-------|
D|-----------------------------------------------------|
A|-0--0--0--0--0--0--0--0--0--0--0--0--0/3--3--3-------|
D|-----------------------------------------------------|

E|-----------------------------------------------------|
B|-----------------------------------------------------|
G|-5/7--7--7--7--7--7--7--7--7--7--7---7/9--9--9-------|
D|-----------------------------------------------------|
A|-3/5--5--5--5--5--5--5--5--5--5--5---5/7--7--7-------|
D|-----------------------------------------------------|

E|-----------------------------------------------------|
B|-----------------------------------------------------|
G|-7-7--7--7--7--7--7--7--7--7--7--7---7/9--9--9-------|
D|-----------------------------------------------------|
A|-5-5--5--5--5--5--5--5--5--5--5--5---5/7--7--7-------|
D|-----------------------------------------------------|

E|----------------------------------------|
B|----------------------------------------|
G|-5-5-5-5-5-5-5-5-5-5-5-5-5--5-4-4-4-----|
D|----------------------------------------|
A|-3-3-3-3-3-3-3-3-3-3-3-3-3--3-2-2-2-----|
D|----------------------------------------|


E|-----------------------------------------------------|
B|-----------------------------------------------------|
G|-9--9--9--9--9--9--9--9--9--9--9--9--9/11-11-11------|
D|-----------------------------------------------------|
A|-7--7--7--7--7--7--7--7--7--7--7--7--7/9--9--9-------|
D|-----------------------------------------------------|

E|-----------------------------------------------------|
B|-----------------------------------------------------|
G|-5/7--7--7--7--7--7--7--7--7--7--7---7/9--9--9-------|
D|-----------------------------------------------------|
A|-3/5--5--5--5--5--5--5--5--5--5--5---5/7--7--7-------|
D|-----------------------------------------------------|

E|-----------------------------------------------------|
B|-----------------------------------------------------|
G|-7-7--7--7--7--7--7--7--7--7--7--7---7/9--9--9-------|
D|-----------------------------------------------------|
A|-5-5--5--5--5--5--5--5--5--5--5--5---5/7--7--7-------|
D|-----------------------------------------------------|

E|----------------------------------------|
B|----------------------------------------|
G|-5-5-5-5-5-5-5-5-5-5-5-5-5--5-4-4-4-----|
D|----------------------------------------|
A|-3-3-3-3-3-3-3-3-3-3-3-3-3--3-2-2-2-----|
D|----------------------------------------|


2nd Guitar (3rd Chorus variation):

E|-----------------------------------------------------|
B|-----------------------------------------------------|
G|-9--9--9--9--9--9--9--9--9--9--9--9--9/11-11-11------|
D|-----------------------------------------------------|
A|-7--7--7--7--7--7--7--7--7--7--7--7--7/9--9--9-------|
D|-----------------------------------------------------|

E|-----------------------------------------------------|
B|-----------------------------------------------------|
G|-5/7--7--7--7--7--7--7--7--7--7--7---7/9--9--9-------|
D|-----------------------------------------------------|
A|-3/5--5--5--5--5--5--5--5--5--5--5---5/7--7--7-------|
D|-----------------------------------------------------|

E|-----------------------------------------------------|
B|-----------------------------------------------------|
G|-7-7--7--7--7--7--7--7--7--7--7--7---7/9--9--9-------|
D|-----------------------------------------------------|
A|-5-5--5--5--5--5--5--5--5--5--5--5---5/7--7--7-------|
D|-----------------------------------------------------|

E|----------------------------------------|
B|----------------------------------------|
G|-5-5-5-5-5-5-5-5-5-5-5-5-5--5-4-4-4-----|
D|----------------------------------------|
A|-3-3-3-3-3-3-3-3-3-3-3-3-3--3-2-2-2-----|
D|----------------------------------------|


E|-----------------------------------------------------|
B|-----------------------------------------------------|
G|-9--9--9--9--9--9--9--9--9--9--9--9--9/11-11-11------|
D|-----------------------------------------------------|
A|-7--7--7--7--7--7--7--7--7--7--7--7--7/9--9--9-------|
D|-----------------------------------------------------|

E|-----------------------------------------------------|
B|-----------------------------------------------------|
G|-5/7--7--7--7--7--7--7--7--7--7--7---7/9--9--9-------|
D|-----------------------------------------------------|
A|-3/5--5--5--5--5--5--5--5--5--5--5---5/7--7--7-------|
D|-----------------------------------------------------|

E|-----------------------------------------------------|
B|-----------------------------------------------------|
G|-7-7--7--7--7--7--7--7--7--7--7--7---7/9--9--9-------|
D|-----------------------------------------------------|
A|-5-5--5--5--5--5--5--5--5--5--5--5---5/7--7--7-------|
D|-----------------------------------------------------|

E|----------------------------------------|--------|
B|----------------------------------------|--------|
G|-5-5-5-5-5-5-5-5-5-5-5-5-5--5-4-4-4-----|---2----|
D|----------------------------------------|--------|
A|-3-3-3-3-3-3-3-3-3-3-3-3-3--3-2-2-2-----|---0----|
D|----------------------------------------|--------|

//END OF OPTIONAL PART



Post-Chorus:
E|-------------------------------------------------------------|
B|-------------------------------------------------------------|
G|-9-10-9----9-10-9----9-10-9----9-10-9----14--14-14-14-14-14--|
D|-------------------------------------------------------------|
A|-7-8--7----7-8--7----7-8--7----7-8--7----12--12-12-12-12-12--|
D|-------------------------------------------------------------|

E|-------------------|
B|-------------------|
G|--17-17---13-13----|
D|-------------------|
A|--15-15---11-11----|
D|-------------------|

2nd Guitar (Post-Chorus):
E|-------------------------------------------------------------|
B|-------------------------------------------------------------|
G|-------------------------------18-18-18-18-------------------|
D|-------------------------------------------------------------|
A|-------------------------------------------------------------|
D|-------------------------------------------------------------|




Добавлено: 29.03.2012
Другие материалы по этой песне:

Страница создана 29.03.2012
http://primanota.ru/placebo/kitty-litter-chords.htm
Привет, Гость.
Предлагаем пройти революционный курс по гитаре.
Подарок от PrimaNota.Ru, забирай!