PrimaNota.ru - самый крупный в мире бесплатный архив песенных текстов, аккордов, табулатур и нот


Placebo - Kitsch Object - текст песни, таба, видео

Регистрация Запомнить меня
Войти через:  Facebook Google Twitter Vk Yandex Mail.ru

Placebo - Kitsch Object - текст песни, таба, видео

Печатать
Просмотров: 266
-------------------------------------------------------------------------------
                             KITSCH OBJECT - Placebo
-------------------------------------------------------------------------------
Tabbed by:Luis Gustavo Hernández Collado
Email:ltavo_87@hotmail.com

Tuning:EADGBe

Intro
(They say romance is back in fashion when I say that Kitsch is back in fashion.)

e|-------------------------|
B|-------------------------|
G|-8-88-x-11-10-1010-x-----| X4
D|-x-xx-x-x--x--x-x--x-----|
A|-6-66-x-9--8--8-8--x-4-6-|
E|-------------------------|

Verse 1
(Just like every lichen, how you stick to me...)
e|------------------|
B|------------------|
G|-10--1088-13-10---| X8
D|-x---x-xx-x--x----|
A|-8---8-66-11-8----|
E|------------------|

(Snook yourself backstage, Paris sets the rage...)
e|-------------------------|
B|-------------------------|
G|-8-88-x-11-10-1010-x-----| X4
D|-x-xx-x-x--x--x-x--x-----|
A|-6-66-x-9--8--8-8--x-4-6-|
E|-------------------------|

(Just like every lichen, how you stick to me...)
e|------------------|
B|------------------|
G|-10--1088-13-10---| X8
D|-x---x-xx-x--x----|
A|-8---8-66-11-8----|
E|------------------|

Chorus 1
(Weightless...bare...faithless...scared!)
e|--------------------------------|
B|--------------------------------|
G|-8888----8888----8888----8888---|
D|-xxxx----xxxx----xxxx----xxxx---|
A|-6666pm--6666pm--6666pm--6666pm-|
E|--------------------------------|

Verse 2
(Know that bitche's face?, have seen better days...)
e|-------------------------|
B|-------------------------|
G|-8-88-x-11-10-1010-x-----| X4
D|-x-xx-x-x--x--x-x--x-----|
A|-6-66-x-9--8--8-8--x-4-6-|
E|-------------------------|

(Just like every lichen, how you stick to me...)
e|------------------|
B|------------------|
G|-10--1088-13-10---| X8
D|-x---x-xx-x--x----|
A|-8---8-66-11-8----|
E|------------------|

Chorus 2
(Weightless...bare...faithless...scared!)
e|--------------------------------|
B|--------------------------------|
G|-8888----8888----8888----8888---|
D|-xxxx----xxxx----xxxx----xxxx---|
A|-6666pm--6666pm--6666pm--6666pm-|
E|--------------------------------|

Verse 3
(Snook yourself backstage, Paris sets the rage...)
e|-------------------------|
B|-------------------------|
G|-8-88-x-11-10-1010-x-----| X4
D|-x-xx-x-x--x--x-x--x-----|
A|-6-66-x-9--8--8-8--x-4-6-|
E|-------------------------|

(Just like every lichen, how you stick to me...)
e|------------------|
B|------------------|
G|-10--1088-13-10---| X8
D|-x---x-xx-x--x----|
A|-8---8-66-11-8----|
E|------------------|

Outro
e|--------------------------------|
B|--------------------------------|
G|-8888----8888----8888----8888---|
D|-xxxx----xxxx----xxxx----xxxx---|
A|-6666pm--6666pm--6666pm--6666pm-|
E|--------------------------------|
Добавлено: 29.04.2012
Другие материалы по этой песне:
  • Аккорды и текст

Страница создана 02.03.2012
http://primanota.ru/placebo/kitsch-object-chords.htm
Привет, Гость.
Предлагаем пройти революционный курс по гитаре.
Подарок от PrimaNota.Ru, забирай!