PrimaNota.ru - самый крупный в мире бесплатный архив песенных текстов, аккордов, табулатур и нот


Placebo - I Know You Want To Stop - таба, видео

Регистрация Запомнить меня
Войти через:  Facebook Google Twitter Vk Yandex Mail.ru

Placebo - I Know You Want To Stop - таба, видео

Печатать
Просмотров: 250
Уроки эстрадного вокала в Санкт-Петербурге
Авторы: Gavin Pearce, She Rocola, Joe Whitney

with flanger
1:----------------------------------------------------|
2:----------------------------------------------------|
3:8-8-8-9-9-9-10-10-10-12-12-12-13-13-13-13-----------|
4:8-8-8-9-9-9-10-10-10-12-12-12-13-13-13-13 ----------|
5:6-6-6-7-7-7-8--8--8--10-10-10-11-11-11-11-----------|
6:----------------------------------------------------|

1:------------------------------------------|
2:------------------------------------------|
3:8-8-8-9-9-9-10-10-10-6-6-6-6-6-66---------|
4:8-8-8-9-9-9-10-10-10-6-6-6-6-6-66---------|
5:6-6-6-7-7-7--8--8--8-4-4-4-4-4-44---------|
6:------------------------------------------|

light bends
1:--------------------------------------------------------|
2:--------------------------------------------------------|
3:--------------------------------------------------------|
4:----3b------------6b---8br---10b----8---6---6666br------|
5:--------------7b----------------------------4444--------|
6:1--------1----------------------------------------------|

1:--------------------------------------------------------|
2:--------------------------------------------------------|
3:--------------------------------------------------------|
4:----3b------------6b---8br---10b----8---6---6666--------|
5:--------------7b----------------------------4444--------|
6:1--------1----------------------------------------------|

Repeat 1-st riff with flanger.
after on words "You're still":

1:-------------------------------------------|
2:-------------------------------------------|
3:---------------4b-4b--4b-4b-1--------------|
4:------6----3-------------------------------| 3 times
5:------6----3-------------------------------|
6:-4----4----1-------------------------------|

1:------------------------------------|
2:------------------------------------|
3:----------6---6-6-6-6-6-6-----------|
4:------8---6---6-6-6-6-6-6-----------|
5:------8---4---4-4-4-4-4-4-----------|
6:-6----6-----------------------------|

1:----------------------------------------------------|
2:----------------------------------------------------|
3:----------------------------------------------------|
4:----3b-------------6b---8br---10b----8---6---6666br-|
5:---------------7b----------------------------4444---|
6:1---------1-----------------------------------------|

1:-----------------------------------------------------------|
2:-----------------------------------------------------------|
3:-----------------------------------------8b---10b----------|
4:----3b-------------6b---8br---10b----------------9-9-9-9br-|
5:---------------7b------------------------------------------|
6:1---------1------------------------------------------------|

with flanger, 2 times.
1:-------------------------------9-9-9-8-8-8----------------------------|
2:9-9-9-8-8-8----9-9-9-8-8-8-----------------9-9------------------------|
3:-----------8-8-------------8-8-----------------10-10-10-10-10-10-8-8--|
4:----------------------------------------------------------------------|
5:----------------------------------------------------------------------|
6:----------------------------------------------------------------------|

Repeat 1-st riff with flanger and riff under words "You're still" (2 times)
Добавлено: 27.11.2013
Другие материалы по этой песне:
  • Аккорды и текст

Страница создана 27.11.2013
http://primanota.ru/placebo/i-know-you-want-to-stop-chords.htm
Привет, Гость.
Предлагаем пройти революционный курс по гитаре.
Подарок от PrimaNota.Ru, забирай!