PrimaNota.ru - самый крупный в мире бесплатный архив песенных текстов, аккордов, табулатур и нот


Placebo - Every Me And Every You Live Rock Am Ring 2009 - бас-таба, видео

Регистрация Запомнить меня
Войти через:  Facebook Google Twitter Vk Yandex Mail.ru

Placebo - Every Me And Every You Live Rock Am Ring 2009 - бас-таба, видео

Печатать
Просмотров: 171
Уроки эстрадного вокала в Санкт-Петербурге
-----------------------------------------------------------------
 PLACEBO - Every Me, Every You [Live Rock Am Ring 2009] 
-----------------------------------------------------------------
 Tabbed By : miguelon76
 e-mail: mithrandir_nbr@hotmail.com
 Tuning: standard EADG

Since I can't hear the bass very clearly in the studio recording,
I have tabbed a 2009 live version at Rock Am Ring, where I can hear
the bass clearly. The song is here:
https://www.youtube.com/watch?v=ni8i0x7suBo

  [Intro]
G|---------------|---------------|----------------|---------------|
D|---------------|---------------|----------------|---------------|
A|5-5-5-5-5-5-5-5|1-1-1-1-3-3-3-3|5-5-5-5-5-5-0-00|1-1-1-1-1-1-1-1|
E|---------------|---------------|----------------|---------------|

G|---------------|---------------|----------------|---------------|
D|---------------|---------------|----------------|---------------|
A|5-5-5-5-5-5-5-5|1-1-1-1-3-3-3-3|5-5-5-5-5-5-0-00|1-1-1-1-3-3-3-3|
E|---------------|---------------|----------------|---------------|

  Sucker love is heaven sent
G|---------------|---------------|----------------|---------------|
D|---------------|---------------|----------------|---------------|
A|5-5-5-5-5-5-5-5|1-1-1-1-3-3-3-3|5-5-5-5-5-5-0-00|1-1-1-1-1-1-1-1|
E|---------------|---------------|----------------|---------------|

G|---------------|---------------|----------------|---------------|
D|---------------|---------------|----------------|---------------|
A|5-5-5-5-5-5-5-5|1-1-1-1-3-3-3-3|5-5-5-5-5-5-0-00|1-1-1-1-3-3-3-3|
E|---------------|---------------|----------------|---------------|

  Carved your name into my arm
G|---------------|---------------|---------------|---------------|
D|---------------|---------------|---------------|----3-0-3-0-3-5|
A|1-1-1-1-1-1-1-1|1-1-1-1-1-1-1-1|5-5-5-5-5-5-5-5|5-5------------|
E|---------------|---------------|---------------|---------------|

  'Cause there's nothing...
G|---------------|---------------|---------------|---------------|
D|---------------|---------------|---------------|---------------|
A|1-1-1-1-1-1-1-1|1-1-1-1-1-1-1-1|---------------|0-0-0-0-0-0-0-0|
E|---------------|---------------|1-1-1-1-1-1-1-1|---------------|

  Sucker love a box I choose
G|---------------|---------------|----------------|---------------|
D|---------------|---------------|----------------|---------------|
A|5-5-5-5-5-5-5-5|1-1-1-1-3-3-3-3|5-5-5-5-5-5-0-00|1-1-1-1-1-1-1-1|
E|---------------|---------------|----------------|---------------|

G|---------------|---------------|----------------|---------------|
D|---------------|---------------|----------------|---------------|
A|5-5-5-5-5-5-5-5|1-1-1-1-3-3-3-3|5-5-5-5-5-5-0-00|1-1-1-1-3-3-3-3|
E|---------------|---------------|----------------|---------------|

 In the shape...
G|---------------|---------------|---------------|---------------|
D|---------------|---------------|---------------|----3-0-3-0-3-5|
A|1-1-1-1-1-1-1-1|1-1-1-1-1-1-1-1|5-5-5-5-5-5-5-5|5-5------------|
E|---------------|---------------|---------------|---------------|

  'Cause there's nothing...
G|---------------|---------------|---------------|---------------|
D|---------------|---------------|---------------|---------------|
A|1-1-1-1-1-1-1-1|1-1-1-1-1-1-1-1|---------------|0-0-0-0-0-0-0-0|
E|---------------|---------------|1-1-1-1-1-1-1-1|---------------|

  Every me...
G|---------------|---------------|---------------|----------------|
D|---------------|---------------|---------------|----------------|
A|1-1-1-1-1-1-1-1|1-1-1-1-1-1-1-1|---------------|-0-0-0-0-0-0-0-0|
E|---------------|---------------|1-1-1-1-1-1-1-1|----------------|

  Sucker love is known to swing
G|---------------|---------------|----------------|---------------|
D|---------------|---------------|----------------|---------------|
A|5-5-5-5-5-5-5-5|1-1-1-1-3-3-3-3|5-5-5-5-5-5-0-00|1-1-1-1-1-1-1-1|
E|---------------|---------------|----------------|---------------|

G|---------------|---------------|----------------|---------------|
D|---------------|---------------|----------------|---------------|
A|5-5-5-5-5-5-5-5|1-1-1-1-3-3-3-3|5-5-5-5-5-5-0-00|1-1-1-1-3-3-3-3|
E|---------------|---------------|----------------|---------------|

 I serve mu head...
G|---------------|---------------|---------------|---------------|
D|---------------|---------------|---------------|----3-0-3-0-3-5|
A|1-1-1-1-1-1-1-1|1-1-1-1-1-1-1-1|5-5-5-5-5-5-5-5|5-5------------|
E|---------------|---------------|---------------|---------------|

  'Cause there's nothing...
G|---------------|---------------|---------------|---------------|
D|---------------|---------------|---------------|---------------|
A|1-1-1-1-1-1-1-1|1-1-1-1-1-1-1-1|---------------|0-0-0-0-0-0-0-0|
E|---------------|---------------|1-1-1-1-1-1-1-1|---------------|

 Every me...                                                    x2
G||---------------|---------------|---------------|---------------||
D||---------------|---------------|---------------|---------------||
A||1-1-1-1-1-1-1-1|1-1-1-1-1-1-1-1|---------------|0-0-0-0-0-0-0-0||
E||---------------|---------------|1-1-1-1-1-1-1-1|---------------||

  Like the naked...                ...I'm selfish...   ...and leave behind
                                        ____________  ______________
                                     x2    1st time |      2nd time |
G||-----------|------------|----------|------------||---------------|
D||-----------|------------|----------|------------||---------------|
A||5----5----\|1--/--3----/|5----5----|0-0--01-1---||0-0-0-0-0-0-0-0|
E||-----------|------------|----------|------------||---------------|

  All alone...
G|---------------|---------------|----------------|---------------|
D|---------------|---------------|----------------|---------------|
A|5-5-5-5-5-5-5-5|1-1-1-1-3-3-3-3|5-5-5-5-5-5-0-00|1-1-1-1-1-1-1-1|
E|---------------|---------------|----------------|---------------|

G|---------------|---------------|----------------|---------------|
D|---------------|---------------|----------------|---------------|
A|5-5-5-5-5-5-5-5|1-1-1-1-3-3-3-3|5-5-5-5-5-5-0-00|1-1-1-1-3-3-3-3|
E|---------------|---------------|----------------|---------------|

 Every me...                                                    x4
G||---------------|---------------|---------------|---------------||
D||---------------|---------------|---------------|---------------||
A||1-1-1-1-1-1-1-1|1-1-1-1-1-1-1-1|---------------|0-0-0-0-0-0-0-0||
E||---------------|---------------|1-1-1-1-1-1-1-1|---------------||


G|----------------------------------------------------------------|
D|----------------------------------------------------------------|
A|---Bass silence 3:15-3:38--------------------------------------\|
E|----------------------------------------------------------------|

Every me...                                                    x4
G||----------------|---------------|---------------|---------------||
D||----------------|---------------|---------------|---------------||
A||\1-1-1-1-1-1-1-1|1-1-1-1-1-1-1-1|---------------|0-0-0-0-0-0-0-0||
E||----------------|---------------|1-1-1-1-1-1-1-1|---------------||

G|-------|--------------------------------------------------------|
D|-------|-----------[End]----------------------------------------|
A|1------|--------------------------------------------------------|
E|-------|--------------------------------------------------------|


| /  slide up
| \  slide down
| h  hammer-on
| p  pull-off
| ~  vibrato
| +  harmonic
| x  Mute note
Добавлено: 14.05.2016
Другие материалы по этой песне:
  • Аккорды и текст

Страница создана 14.05.2016
http://primanota.ru/placebo/every-me-and-every-you-live-rock-am-ring-2009-chords.htm
Привет, Гость.
Предлагаем пройти революционный курс по гитаре.
Подарок от PrimaNota.Ru, забирай!