PrimaNota.ru - самый крупный в мире бесплатный архив песенных текстов, аккордов, табулатур и нот


Placebo - Drink You Pretty - текст песни, таба, видео

Регистрация Запомнить меня
Войти через:  Facebook Google Twitter Vk Yandex Mail.ru

Placebo - Drink You Pretty - текст песни, таба, видео

Печатать
Просмотров: 431
Авторы: Placebo

-------------------------------------------------------------------------------
                             DRINK YOU PRETTY - Placebo
-------------------------------------------------------------------------------
Tabbed by:Luis Gustavo Hernández Collado
Email:ltavo_87@hotmail.com

Tuning:EADGBe

Intro
e|---------------------------------|
B|---------------------------------|
G|---------------------------------|X2
D|-3---3---3-6---6-----3---3-----3-|
A|---4---4-----4---4-6---4---4-6---|
E|---------------------------------|

Verse 1
(Sick of drugs and dancing feet, sick of bars where people meet...)
e|------------------------------------------------------------------|
B|------------------------------------------------------------------|
G|------------------------------------------------------------------| X2
D|-3---3---3-6---6-----3---3-----3--3---3---3-6---6-----3---3-------|
A|---4---4-----4---4-6---4---4-6------4---4-----4---4-6---4---4-6-4-|
E|------------------------------------------------------------------|

Chorus 1
(...lie to me, takes less time, to drink you pretty...)
e|-1---1---1---1-1r----------------------|
B|---2---2---2---2r-----1---1---1---1-1r-|
G|------------------------1---1---1---1r-| X2
D|---------------------------------------|
A|---------------------------------------|
E|---------------------------------------|
r= let ring

Verse 2
(...Human seas of apathy, nuclear catastrophe...)
e|--------------------------------------------------------------------|
B|--------------------------------------------------------------------|
G|--------------------------------------------------------------------| X2
D|-3---3---3-6---6-----3---3-----3----3---3---3-6---6-----3---3-------|
A|---4---4-----4---4-6---4---4-6--------4---4-----4---4-6---4---4-6-4-|
E|--------------------------------------------------------------------|

Chorus 2
(...lie to me, takes less time, to drink you pretty...)
e|-1---1---1---1-1r----------------------|
B|---2---2---2---2r-----1---1---1---1-1r-|
G|------------------------1---1---1---1r-| X2
D|---------------------------------------|
A|---------------------------------------|
E|---------------------------------------|
r= let ring

Interlude
(...Hello pretty, hello...)
e|-----------------------------------------------------------------|
B|-6---6---6-9---9-----6---6-----6-6---6---6-9---9-----6---6-------|
G|---6---6-----6---6-8---6---6-8-----6---6-----8---6-8---6---6-8-6-| X2
D|-----------------------------------------------------------------|
A|-----------------------------------------------------------------|
E|-----------------------------------------------------------------|

Chorus 3 /Outro
(...lie to me, takes less time, to drink you pretty...)
e|-1---1---1---1-1r----------------------|
B|---2---2---2---2r-----1---1---1---1-1r-|
G|------------------------1---1---1---1r-| X2
D|---------------------------------------|
A|---------------------------------------|
E|---------------------------------------|
r= let ring
Добавлено: 12.06.2012
Другие материалы по этой песне:

Страница создана 01.03.2012
http://primanota.ru/placebo/drink-you-pretty-chords.htm
Привет, Гость.
Предлагаем пройти революционный курс по гитаре.
Подарок от PrimaNota.Ru, забирай!