PrimaNota.ru - самый крупный в мире бесплатный архив песенных текстов, аккордов, табулатур и нот


Placebo - Bionic - текст песни, таба, видео

Регистрация Запомнить меня
Войти через:  Facebook Google Twitter Vk Yandex Mail.ru

Placebo - Bionic - текст песни, таба, видео

Печатать
Просмотров: 424
Уроки эстрадного вокала в Санкт-Петербурге
Авторы: Robert Schultzberg, Stefan Olsdal, Brian Molko

-------------------------------------------------------------------------------
			     BIONIC - Placebo
-------------------------------------------------------------------------------
Tabbed by:Luis Gustavo Hernández Collado
Email:ltavo_87@hotmail.com

Tuning:EADGBe

Intro
e|---------------------------|
B|---------------------------|
G|---------------------------|X2
D|-88888888-1212121212121212-|
A|-66666666-1010101010101010-|
E|---------------------------|

e|----------------------------------------------|
B|----------------------------------------------|
G|-88888888-12121212----12-12----12-12----12-12-|X2
D|-88888888-12121212-12-12-12-12-12-12-12-12-12-|
A|-66666666-10101010-10-------10-------10-------|
E|----------------------------------------------|

Verse 1
(Harder, faster, forever after!...)
e|----------------------------------------------|
B|----------------------------------------------|
G|-88888888-12121212----12-12----12-12----12-12-|X4
D|-88888888-12121212-12-12-12-12-12-12-12-12-12-|
A|-66666666-10101010-10-------10-------10-------|
E|----------------------------------------------|

Chorus 1
(None of you can make the grade...)
e|------------------------|
B|------------------------|
G|------------------------|X4
D|-5-5-6-5-5-6-8/12121212-|
A|-6-6-6-6-6-6-6/10101010-|
E|------------------------|

e|---------------------------------------------------------|
B|-11-11-9-9-8-8-8-8-9-11-9-8-8-9-9-9-9-8-8-8-8------------|
G|---------------------------------------------7-7-7-8-8-8-|X3
D|---------------------------------------------------------|
A|---------------------------------------------------------|
E|---------------------------------------------------------|

e|---------------------------------------------------|
B|-11-11-9-9-8-8-8-8-9-11-11/15-15-15-15-16-16-16-16-|
G|---------------------------------------------------|
D|---------------------------------------------------|
A|---------------------------------------------------|
E|---------------------------------------------------|

Verse 2
(Harder, faster, forever after!...)
e|----------------------------------------------|
B|----------------------------------------------|
G|-88888888-12121212----12-12----12-12----12-12-|X4
D|-88888888-12121212-12-12-12-12-12-12-12-12-12-|
A|-66666666-10101010-10-------10-------10-------|
E|----------------------------------------------|

Chorus 2
(None of you can make the grade...)
e|------------------------|
B|------------------------|
G|------------------------|X4
D|-5-5-6-5-5-6-8/12121212-|
A|-6-6-6-6-6-6-6/10101010-|
E|------------------------|

e|---------------------------------------------------------|
B|-11-11-9-9-8-8-8-8-9-11-9-8-8-9-9-9-9-8-8-8-8------------|
G|---------------------------------------------7-7-7-8-8-8-|X3
D|---------------------------------------------------------|
A|---------------------------------------------------------|
E|---------------------------------------------------------|

e|---------------------------------------------------|
B|-11-11-9-9-8-8-8-8-9-11-11/15-15-15-15-16-16-16-16-|
G|---------------------------------------------------|
D|---------------------------------------------------|
A|---------------------------------------------------|
E|---------------------------------------------------|

Interlude
e|------------------------------------------|
B|------------------------------------------|
G|------------------------------------------|
D|-5pm-5pm-6pm-5pm-5pm-6pm/8pm-12pm12pm12pm-|
A|------------------------------------------|
E|------------------------------------------|
pm= palm mute

e|---------------------------------------------------------|
B|-11-11-9-9-8-8-8-8-9-11-9-8-8-9-9-9-9-8-8-8-8------------|
G|---------------------------------------------7-7-7-8-8-8-|X3
D|---------------------------------------------------------|
A|---------------------------------------------------------|
E|---------------------------------------------------------|

e|---------------------------------------------------|
B|-11-11-9-9-8-8-8-8-9-11-11/15-15-15-15-16-16-16-16-|
G|---------------------------------------------------|
D|---------------------------------------------------|
A|---------------------------------------------------|
E|---------------------------------------------------|

Outro
e|------------------------------------------|
B|------------------------------------------|
G|------------------------------------------|X4
D|-5pm-5pm-6pm-5pm-5pm-6pm/8pm-12pm12pm12pm-|
A|------------------------------------------|
E|------------------------------------------|
pm= palm mute
Добавлено: 27.06.2013
Другие материалы по этой песне:

Страница создана 23.03.2012
http://primanota.ru/placebo/bionic-chords.htm
Привет, Гость.
Предлагаем пройти революционный курс по гитаре.
Подарок от PrimaNota.Ru, забирай!