PrimaNota.ru - самый крупный в мире бесплатный архив песенных текстов, аккордов, табулатур и нот


Pk - The Catch - таба, видео

Регистрация Запомнить меня
Войти через:  Facebook Google Twitter Vk Yandex Mail.ru

Pk - The Catch - таба, видео

Печатать
Просмотров: 90
Intro Lead

eb----------------------------------|
Bb----------------------------------|
Gb----16--------16------------------|  x3
Db--14--16----14--16-14-------------|
Ab---------------------14-----------|
Eb----------------------------------|

Intro Rhythm
eb-----------------------------------------------|
Bb-----------------------------------------------|
Gb-----------------------------------------------|
Db--9-99-x-7-77-777-6-66-66----------------------|
Ab--7-77-x-7-77-777-7-77-77----------------------| z3
Eb--9-99-x-5-55-555-0-00-00----------------------|

Verse

eb-------------------------------------------------------|
Bb-------------------------------------------------------|
Gb-------------------------------------------------------|
Db--2------4----/7-----2---------------------------------|
Ab--2-x14--4-x5-/7-x9--2-x16-----------------------------|
Eb--0------2----/5-----0---------------------------------|

Pre-chorus lead

eb-------------------------------------------------------------|
Bb-------------------------------------------------------------|
Gb---8-9-/13-/16-\11-8-9-/13-/16161616161616161616161616161616-|
Db-------------------------------------------------------------|
Ab-------------------------------------------------------------|
Eb-------------------------------------------------------------|

Rhythm
eb---------------------------------------|
Bb---------------------------------------|
Gb--8-88888h9-99999999-------------------|
Db--6-66666---66666666-------------------| x3
Ab---------------------------------------|
Eb---------------------------------------|

then

eb---------------------------------------|
Bb---------------------------------------|
Gb---------------------------------------|
Db-2222222222222222----------------------|
Ab-2222222222222222----------------------|
Eb-0000000000000000----------------------|

Chorus

eb---------------------------------------|
Bb---------------------------------------|
Gb---------------------------------------|
Db--6-------7----6-----------------------|  x2
Ab--7-x20---7-x8-7-x8--------------------|
Eb--0-------5----0-----------------------|


INTRO

VERSE

PRE-CHORUS

CHORUS

BREAKDOWN

Guitar 1
Ring out these
eb--0-
Bb--0-
Gb--1-
Db--2-
Ab--2-
Eb--0-

Guitar 2

eb-------------------|
Bb-------------------|
Gb-------------------| with the occasional ring outs
Db-2-----------------|
Ab-2-x48-------------|
Eb-0-----------------|

1:51

eb---------------------------------------|
Bb---------------------------------------|
Gb---------------------------------------|
Db--2------7-----------------------------| x2, then un PM towards the end
Ab--2-x32--7--x32------------------------| of the second time
Eb--0------5-----------------------------|

PRE-CHORUS
except on the last build up type thing to the chorus do this

eb--------------------------------------------|
Bb--------------------------------------------|
Gb--8--x25------------------------------------|
Db--6-----------------------------------------|
Ab--------------------------------------------|
Eb--------------------------------------------|

CHORUS

aaaand Done.
Добавлено: 21.09.2013
Вам также может быть интересно:
Другие материалы по этой песне:
  • Аккорды и текст

Страница создана 21.09.2013
http://primanota.ru/pk/the-catch-chords.htm
Привет, Гость.
Предлагаем пройти революционный курс по гитаре.
Подарок от PrimaNota.Ru, забирай!