PrimaNota.ru - самый крупный в мире бесплатный архив песенных текстов, аккордов, табулатур и нот


Pk - Seawolves - таба, видео

Регистрация Запомнить меня
Войти через:  Facebook Google Twitter Vk Yandex Mail.ru

Pk - Seawolves - таба, видео

Печатать
Просмотров: 68
Favorite PK song, enjoy.

side note: Chorus rhythm parts only sound about correct, I don't know if that's how it
actually is, but see for yourself

/ = Slide up
\ = down
Intro Lead Guitar

eB---------------------------------------------------------|
Bb--10-----------------------------------------------------|
Gb--7--x17 (first 12 Palm muted)----7----------------------|
Db----------------------------------9-x16-(PM first 12)----|
Ab---------------------------------------------------------|
Eb---------------------------------------------------------|
                                                                X2 for both
eb------------------------------------------------------|
Bb------------------------------------------------------|
Gb-/-11---------------------9---------------------------|
Db-/-12-x16(PM first 11)----7-x16-(PM first 12)---------|
Ab------------------------------------------------------|
Eb------------------------------------------------------|


Intro Rhythm Guitar x2
eB--------------x-x----x-----x---x---x------------------------|
Bb--------------x-x----x-----x---x---x------------------------|
Gb--------------x-x--7-x-7-7-x-7-x-7-x-7-7-7-7-7-7-7-7--------|
Db--------------x-x--7-x-7-7-x-7-x-7-x-7-7-7-7-7-7-7-7-x2-----|
Ab--5-5h7p5--x8-x-x--5-x-5-5-x-5-x-5-x-5-5-5-5-5-5-5-5--------|
Eb--3-3-3-3-----x-x----x-----x---x---x------------------------|

                                10
Verse (start by ringing out with 7)
eb--7p5------5--------------------|
Bb------------5-------------------|
Gb--------7-----------------------|
Db--------7-----------------------|
Ab--------5-----------------------|
Eb--------------------------------|


Pre-chorus "Someday soon..." (lead)
eb------------------------------------------|
Bb------------------------------------------|
Gb---9-9-9-/-11-11-11-\--7------------------|
Db---x-x-x-/--x--x--x-\--x------------------|  x2
Ab---7-7-7-/--9--9--9-\--5------------------|
Eb------------------------------------------|

then
eb-------------------------------------------------------------------------|
Bb-------------------------------------------------------------------------|
Gb--14-\-11---14-\-12-\-11-\-9-/-11----------------------------------------|
Db---x-\--x----x-\--x-\--x-\-x-/--x----------------------------------------|
Ab--12-\--9---12-\-10-\--9-\-7-/--9----------------------------------------|
Eb-------------------------------------------------------------------------|
then start over

Rhythm guitar for pre-chorus is the same as Intro rhythm guitar
eb------------------------------------------|
Bb------------------------------------------|
Gb---9-9-9-/-11-11-11-\--7------------------|
Db---x-x-x-/--x--x--x-\--x------------------|  x2
Ab---7-7-7-/--9--9--9-\--5------------------|
Eb------------------------------------------|

then
eb-------------------------------------------------------------------------|
Bb-------------------------------------------------------------------------|
Gb--14-\-11---14-\-12-\-11-\-9-/-11----------------------------------------|
Db---x-\--x----x-\--x-\--x-\-x-/--x----------------------------------------|
Ab--12-\--9---12-\-10-\--9-\-7-/--9----------------------------------------|
Eb-------------------------------------------------------------------------|
then start over

CHORUS

Lead
eb---------------------------------------------------------------------------|
Bb-----------------------------10--10----------------------------------------|
Gb--4-44--7-77--/11\9\7-7-9-77---11--11-7----4-4-7-4-/11\9\7-777-9-77--------|
Db---------------------------------------------------------------------------|
Ab---------------------------------------------------------------------------|
Eb---------------------------------------------------------------------------|

eb------------------------------------------|
Bb-----------10----------10--12-------------|
Gb--7777777----11------7--------11-9--------|
Db------------------------------------------|
Ab------------------------------------------|
Eb------------------------------------------|

Rhythm guitar Chorus
eb--------------------------------------|
Bb--------------------------------------|
Gb----------7---------------------------| I believe this is what it is, it sounds as
Db--5-------7--x32--7-------------------| good as anything, feel free to correct me
Ab--5-x32---5-------7--x8---------------|
Eb--3---------------5-------------------|


Post-chorus same is intro lead

Then ring out with some fat D chords

"Come on home!"
eb--2------------------------------------------|
Bb--3------------------------------------------|
Gb--2------------------------------------------|
Db--0------------------------------------------|
Ab--0------------------------------------------|
Eb--0------------------------------------------|

2nd Verse

eb------------------------------------------|
Bb------------------------------------------|
Gb---9-9-9-/-11-11-11-\--7------------------|
Db---x-x-x-/--x--x--x-\--x------------------|  x2
Ab---7-7-7-/--9--9--9-\--5------------------|
Eb------------------------------------------|

then
eb-------------------------------------------------------------------------|
Bb-------------------------------------------------------------------------|
Gb--14-\-11---14-\-12-\-11-\-9-/-11----------------------------------------|
Db---x-\--x----x-\--x-\--x-\-x-/--x----------------------------------------|
Ab--12-\--9---12-\-10-\--9-\-7-/--9----------------------------------------|
Eb-------------------------------------------------------------------------|
then start over

Rhythm guitar for 2nd Verse

eB--------------x-x----x-----x---x---x------------------------|
Bb--------------x-x----x-----x---x---x------------------------|
Gb--------------x-x--7-x-7-7-x-7-x-7-x-7-7-7-7-7-7-7-7--------|
Db--------------x-x--7-x-7-7-x-7-x-7-x-7-7-7-7-7-7-7-7-x2-----|
Ab--5-5h7p5--x8-x-x--5-x-5-5-x-5-x-5-x-5-5-5-5-5-5-5-5--------|
Eb--3-3-3-3-----x-x----x-----x---x---x------------------------|


CHORUS


Bridge

Lead

eb---------------------------------------------------------------------------|
Bb---------------------------------------------------------------------------|
Gb--14-----16-----18------11-------------------------------------------------|
Db---x-x24--x-x4---x--x4---x-------------------------------------------------|
Ab--12-----14-----16-------9-------------------------------------------------|
Eb---------------------------------------------------------------------------|
                                                    x3 for both
Rhythm
eb------------------------------------|
Bb------------------------------------|
Gb---------7-------14-----------------|
Db--5------7-x32----x--x8-------------|
Ab--5-x32--5-------12-----------------|
Eb--3---------------------------------|

on the third one for the lead do this

eb--------------------------------------------|
Bb--------------------------------------------|
Gb-------7-11-9-------------------------------|
Db---7-9--9-----------------------------------|
Ab--------------------------------------------|
Eb--------------------------------------------|
and this
eb-----------------------------------| strings in () are optional to play,
Bb-----------------------------------| whatever you think sounds better play
Gb-----------------------------------|
Db-(5)-(7)-(9)-(11)-(12)-(14)--(16)--|
Ab-(x)-(x)-(x)-(x)---(x)--(x)---(x)--|
Eb--3---5---7---9----10----12----14--|

Ring out on "Find ourselves"

eb---|
Bb---|
Gb---|
Db-5-|
Ab-5-|
Eb-3-|
Добавлено: 03.10.2013
Другие материалы по этой песне:
  • Аккорды и текст

Страница создана 03.10.2013
http://primanota.ru/pk/seawolves-chords.htm
Привет, Гость.
Предлагаем пройти революционный курс по гитаре.
Подарок от PrimaNota.Ru, забирай!