PrimaNota.ru - самый крупный в мире бесплатный архив песенных текстов, аккордов, табулатур и нот


Pk - I Know - таба, видео

Регистрация Запомнить меня
Войти через:  Facebook Google Twitter Vk Yandex Mail.ru

Pk - I Know - таба, видео

Печатать
Просмотров: 72
"Leaving..."
eb--2----3----x--------|
Bb--3----3----2--------|
Gb--2----0----2--------|
Db--0----0----2--------|  x2
Ab--0----2----0--------|
Eb--0----3----0--------|


eb-5-------3-------5------|
Bb-7-------3-------5------|
Gb-7-------4-------6------|
Db-7--x18--5--x8---7--x18-| x2
Ab-5-------5-------7------|
Eb---------3-------5------|


Verse

1st guitar
eb--3----2----------------------------------------------------------|
Bb--3----3----------------------------------------------------------|
Gb--0----2----------------------------------------------------------|
Db--0----0----------------------------------------------------------| x2
Ab--2----0----------------------------------------------------------|
Eb--3----0----------------------------------------------------------|


eb---14--14-----| Heard faintly after and once more
Bb-----15-------|

Rhythm Guitar
Chords: G D A
or
eb--3------5------5--------------------------------------------------|
Bb--3------7------5--------------------------------------------------|
Gb--4------7------6--------------------------------------------------|
Db--5--x8--7--x8--7--x16---------------------------------------------|
Ab--5------5------7--------------------------------------------------|
Eb--3-------------5--------------------------------------------------|


Chorus
eb--2-------3-------x-----------5-------3-----5------------------------------|
Bb--3-------3-------2-----------7-------3-----5-------whatever--sounds-------|
Gb--2-------0-------2-----------7-------4-----6--------better--for you-------|
Db--0--x18--0--x8---2--x18--or--7--x18--5--x8-7-x18--------------------------|
Ab--0-------2-------0-----------5-------5-----7------------------------------|
Eb--0-------3-------0-------------------3-----5------------------------------|


2nd Verse

1st guitar
eb--3----2-------------------|
Bb--3----3-------------------|
Gb--0----2-------------------| x4
Db--0----0-------------------|
Ab--2----0-------------------|
Eb--3----0-------------------|

"Caught up to you"    right about at "another late night"
eb-77-5------        -77-5--|
Bb------7----        -----7-|

"Comin around"        right before "and I cant fake it"
eb-77-5---            --77-5---|
Bb------7-           --------7-|

Rhythm Guitar

eb--3------2------x-----------3------5------5-----------------------------|
Bb--3------3------2-----------3------7------5-----------------------------|
Gb--0------2------2-----------4------7------6-----------------------------|
Db--0--x8--0--x8--2--x16--or--5--x8--7--x8--7--x16------------------------|
Ab--2------0------0-----------5------5------7-----------------------------|
Eb--3------0------0-----------3-------------5-----------------------------|

Chorus

SOLO

eb------------------------------------------|
Bb------------------------------------------|
Gb--7------99-/-1111---7-----14----11--9----|
Db--x-x11--xx-/--x-x---x-x8---x-x3--x--x----|
Ab--5------77-/--9-9---5-----12-----9--7----|
Eb------------------------------------------|

slide down then quickly slide up to each except the last two
eb--------------------------------------x-x-------x-x-----------xx------------|
Bb--------------------------------19-19-x-x-19-19-x-x-19-19--17-xx-17-17------|
Gb-----14-----16-----18----19------x--x-x-x--x--x-x-x--x--x---x-xx--x--x------|
Db------x-x7---x-x7---x-x7--x-x7--16-16-x-x-16-16-x-x-16-16--14-xx-14-14------|
Ab--\-/12-----14-----16----17-------------------------------------------------|
Eb----------------------------------------------------------------------------|

eb-------------------------------------------------------------------------|
Bb-------------------------------------------------------------------------|
Gb---141414-14----------------------141414-14------------------------------|
Db-------------16-14-16-14-16-14-12-----------16-14-16-14-16-14------------|
Ab-------------------------------------------------------------------------|
Eb-------------------------------------------------------------------------|

eb-----------------------------------------------------------|
Bb-----------------------------------------------------------|
Gb--12-14-16-1414-7-12-16-14-16-19-16-19-16------------------|
Db-----------------------------------------------------------|
Ab-----------------------------------------------------------|
Eb-----------------------------------------------------------|

"I know that...."

eb--2-----2--222-------x------3-----x-x-x-x-x-x-x-x-x-x-xxx-x----------|
Eb--3-----3--333-------2------3-----2-2-x-2-2-x-2-2-x-2-222-2----------|
Gb--2-----2--222-------2------0-----2-2-x-2-2-x-2-2-x-2-222-2----------|
Db--0-----0--000-------2------0-----2-2-x-2-2-x-2-2-x-2-222-2----------|
Ab--0-----0--000-------0------2-----0-0-x-0-0-x-0-0-x-0-000-0----------|
Eb--0-----0--000-------0------3-----0-0-x-0-0-x-0-0-x-0-000-0----------|

CHORUS

eb--2-------3-------x------------5-----3----5----------------------------|
Bb--3-------3-------2------------7-----3----5----------------------------|
Gb--2-------0-------2------------7-----4----6----------------------------|
Db--0--x18--0--x8---2--x18---OR--7-x18-5-x8-7-x18------------------------| x2
Ab--0-------2-------0------------5-----5----7----------------------------|
Eb--0-------3-------0------------------3----5----------------------------|
Добавлено: 01.11.2013
Другие материалы по этой песне:
  • Аккорды и текст

Страница создана 14.07.2013
http://primanota.ru/pk/i-know-chords.htm
Привет, Гость.
Предлагаем пройти революционный курс по гитаре.
Подарок от PrimaNota.Ru, забирай!