PrimaNota.ru - самый крупный в мире бесплатный архив песенных текстов, аккордов, табулатур и нот


P.J. Proby - Niki Hoeky - текст песни, бас-таба, видео

Регистрация Запомнить меня
Войти через:  Facebook Google Twitter Vk Yandex Mail.ru

P.J. Proby - Niki Hoeky - текст песни, бас-таба, видео

Печатать
Просмотров: 55
 Niki Hoeky
Track by P J Proby released in 1967 reached number 23 in USA and 22 in
Canada. Never released in UK. Tab by bass50611. Straight forward bass line.
More or less as original and what a tremendous track it is too. Very easy.
Comments at bass254@btinternet.com

Intro:
G|----------------------------------|
D|----------------------------------|
A|------1-----1-------1------1------|
E|-1-1-----1-----1-1------1-----1-1-|

Verse 1:            (Play This x3)
G|-----------------------------|
D|-----------------------------|
A|-1-----1-------1------1------|
E|----1-----1-1------1-----1-1-|

G|-----------------------------------------------------------------|
D|------------1----1---1----------------3-3-3-3-3-3-3-3------------|
A|-1-----1---1---1------3-1-----1------------------------1---1-----|
E|----1-----1----------------1-----1-1---------------------1---1-1-|

Verse 2:
G|------------------------------------------|
D|------------------------------------------|
A|-1-----1-------1-----1-------1-----1------|
E|----1-----1-1-----1-----1-1-----1-----1-1-|

G|-----------------------------------------------------------------|
D|------------1----1---1----------------3-3-3-3-3-3-3-3------------|
A|-1-----1---1---1------3-1-----1------------------------1---1-----|
E|----1-----1----------------1-----1-1---------------------1---1-1-|

For Chorus 1 Repeat Verse 2:

For Solo Repeat Verse 2:

For Chorus 2 Repeat Verse 2:

Outro:           (Repeat To Fade/End)
G|------------------------------|
D|------------------------------|
A|-1------1-------1------1------|
E|-----1-----1-1------1-----1-1-|
Добавлено: 23.11.2015
Вам также может быть интересно:
Другие материалы по этой песне:
  • Аккорды и текст

Страница создана 20.01.2014
http://primanota.ru/pj-proby/niki-hoeky-chords.htm
Привет, Гость.
Предлагаем пройти революционный курс по гитаре.
Подарок от PrimaNota.Ru, забирай!