PrimaNota.ru - самый крупный в мире бесплатный архив песенных текстов, аккордов, табулатур и нот


Pj Harvey - One Time Too Many - таба, видео

Регистрация Запомнить меня
Войти через:  Facebook Google Twitter Vk Yandex Mail.ru

Pj Harvey - One Time Too Many - таба, видео

Печатать
Просмотров: 43
Авторы: PJ Harvey

-------------------------------------------------------------------------------
                             Pj Harvey - One Time Too Many
-------------------------------------------------------------------------------

Album : Batman Forever soundtrack  (1995)
Tempo : 
E-mail: gwendal.mollo@orange.fr
Tabbed by: newg


Riff (play all the song) :

     A5  B5                A5 B5         E5
e|--------------------------------------------------|
B|--------------------------------------------------|
G|--------------------------------------------------|
D|---7/-9-9--9--x-x--x-x---7/-9-9--9--x--2----2--2--|
A|---7/-9-9--9--x-x--x-x---7/-9-9--9--x--2----2--2--|
E|---5/-7-7--7--x-x--x-x---5/-7-7--7--x--0----0--0--|
                                                                              

End of the intro

     A5  B5                A5 B5         E5
e|--------------------------------------------------|
B|--------------------------------------------------|
G|--------------------------------------------------|
D|---7/-9-9--9--x-x--x-x---7/-9-9--9--x--2----------|
A|---7/-9-9--9--x-x--x-x---7/-9-9--9--x--2----------|
E|---5/-7-7--7--x-x--x-x---5/-7-7--7--x--0----------|
                                                      
Добавлено: 17.12.2015
Другие материалы по этой песне:
  • Аккорды и текст

Страница создана 17.12.2015
http://primanota.ru/pj-harvey/one-time-too-many-chords.htm
Привет, Гость.
Предлагаем пройти революционный курс по гитаре.
Подарок от PrimaNota.Ru, забирай!