PrimaNota.ru - самый крупный в мире бесплатный архив песенных текстов, аккордов, табулатур и нот


Pixies - Tame - текст песни, таба, бас-таба, видео

Регистрация Запомнить меня
Войти через:  Facebook Google Twitter Vk Yandex Mail.ru

Pixies - Tame - текст песни, таба, бас-таба, видео

Печатать
Просмотров: 170
Авторы музыки: Black Francis
Авторы текста: Black Francis
          Dm                    C                    F
      x 5 7 7 x x          x 3 5 5 x x          1 3 3 x x x
Gtr I(Electric, Standard Tuning)
Gtr II (Bass)
 Intro/Verse 1
  Q=140
       (D)           (C)               (F)               (D)
 1/4  4/4
       Gtr II (Bass)
  Q    E E E E E E E E   E E E E E E E E   E E E E E E E E
|----|-----------------|-----------------|------------------|
|----|-----------------|-----------------|------------------|
|----|-5-5---5-5-5---3-|-3-3---3-3-3-----|---------------5--|
|----|-----------------|---------------1-|-1-1---1-1-1------|


                (C)               (F)               (D)
  E E E E E E E E   E E E E E E E E   E E E E E E E E
|-----------------|-----------------|-----------------|
|-----------------|-----------------|-----------------|
|-5-5---5-5-5---3-|-3-3---3-3-3---8-|-8-8---8-8-8---5-|
|-----------------|-----------------|-----------------|


                (C)               (F)               (D)
  E E E E E E E E   E E E E E E E E   E E E E E E E E
|-----------------|-----------------|-----------------|
|-----------------|-----------------|-----------------|
|-5-5---5-5-5---3-|-3-3---3-3-3---8-|-8-8---8-8-8---5-|
|-----------------|-----------------|-----------------|


                (C)               (F)
  E E E E E E E E   E E E E E E E E   E E E E E E Q
|-----------------|-----------------|----------------||
|-----------------|-----------------|----------------||
|-5-5---5-5-5---3-|-3-3---3-3-3---8-|-8-8---8-8-8----||
|-----------------|-----------------|----------------||


   Chorus 1
    Dm                C                 F
    Gtr III
    E E E E E E E E   E E E E E E E E    E  E  E  E  E  E  E  E
    | | | | | | | |   | | | | | | | |    |  |  |  |  |  |  |  |
    / / / / / / / /   / / / / / / / /    /  /  /  /  /  /  /  /

    Gtr I
    E E E E E E E E   E E E E E E E E    E  E  E  E  E  E  E  E
||--5-5-5-5-5-5-5-5-|-3-3-3-3-3-3-3-3-|--8--8--8--8--8--8--8--8--||
||o-6-6-6-6-6-6-6-6-|-5-5-5-5-5-5-5-5-|-10-10-10-10-10-10-10-10-o||
||--7-7-7-7-7-7-7-7-|-5-5-5-5-5-5-5-5-|-10-10-10-10-10-10-10-10--||
||--7-7-7-7-7-7-7-7-|-5-5-5-5-5-5-5-5-|-10-10-10-10-10-10-10-10--||
||o-5-5-5-5-5-5-5-5-|-3-3-3-3-3-3-3-3-|--8--8--8--8--8--8--8--8-o||
||--x-x-x-x-x-x-x-x-|-x-x-x-x-x-x-x-x-|--x--x--x--x--x--x--x--x--||
|
|   Gtr II
|   E E E E E E E E   E E E E E E E E    E  E  E  E  E  E  E  E
||------------------|-----------------|--------------------------||
||o-----------------|-----------------|-------------------------o||
||o-5-5-5-5-5-5-5-5-|-3-3-3-3-3-3-3-3-|--8--8--8--8--8--8--8--8-o||
||------------------|-----------------|--------------------------||


 Verses 2 + 3
  $
  (D)           (C)               (F)               (D)
  Gtr II
  E E E E E E E E   E E E E E E E E   E E E E E E E E
|-----------------|-----------------|-----------------|
|-----------------|-----------------|-----------------|
|-5-5---5-5-5---3-|-3-3---3-3-3-----|---------------5-|
|-----------------|---------------1-|-1-1---1-1-1-----|


                (C)               (F)               (D)
  E E E E E E E E   E E E E E E E E   E E E E E E E E
|-----------------|-----------------|-----------------|
|-----------------|-----------------|-----------------|
|-5-5---5-5-5---3-|-3-3---3-3-3---8-|-8-8---8-8-8---5-|
|-----------------|-----------------|-----------------|


                (C)               (F)               (D)
  E E E E E E E E   E E E E E E E E   E E E E E E E E
|-----------------|-----------------|-----------------|
|-----------------|-----------------|-----------------|
|-5-5---5-5-5---3-|-3-3---3-3-3---8-|-8-8---8-8-8---5-|
|-----------------|-----------------|-----------------|


                (C)               (F)
  E E E E E E E E   E E E E E E E E   E E E E E E Q
|-----------------|-----------------|----------------|
|-----------------|-----------------|----------------|
|-5-5---5-5-5---3-|-3-3---3-3-3---8-|-8-8---8-8-8----|
|-----------------|-----------------|----------------|


   Chorus 2 + 3
                                                         D.S.
    Dm                C                 F
    Gtr III
    E E E E E E E E   E E E E E E E E    E  E  E  E  E  E  E  E
    | | | | | | | |   | | | | | | | |    |  |  |  |  |  |  |  |
    / / / / / / / /   / / / / / / / /    /  /  /  /  /  /  /  /

    Gtr I
    E E E E E E E E   E E E E E E E E    E  E  E  E  E  E  E  E  4x
||--5-5-5-5-5-5-5-5-|-3-3-3-3-3-3-3-3-|--8--8--8--8--8--8--8--8--||
||o-6-6-6-6-6-6-6-6-|-5-5-5-5-5-5-5-5-|-10-10-10-10-10-10-10-10-o||
||--7-7-7-7-7-7-7-7-|-5-5-5-5-5-5-5-5-|-10-10-10-10-10-10-10-10--||
||--7-7-7-7-7-7-7-7-|-5-5-5-5-5-5-5-5-|-10-10-10-10-10-10-10-10--||
||o-5-5-5-5-5-5-5-5-|-3-3-3-3-3-3-3-3-|--8--8--8--8--8--8--8--8-o||
||--x-x-x-x-x-x-x-x-|-x-x-x-x-x-x-x-x-|--x--x--x--x--x--x--x--x--||
|
|   Gtr II
|   E E E E E E E E   E E E E E E E E    E  E  E  E  E  E  E  E  4x
||------------------|-----------------|--------------------------||
||o-----------------|-----------------|-------------------------o||
||o-5-5-5-5-5-5-5-5-|-3-3-3-3-3-3-3-3-|--8--8--8--8--8--8--8--8-o||
||------------------|-----------------|--------------------------||


 Outro
  Dm (C5)
  Q  Q  H      W
  |
  /

  Q  q  H      W
|-5\---------|------*|
|-6\---------|------*|
|-7s=5-------|------*|
|-7s=5-------|------*|
|-5s=3-------|------*|
|-x----------|------*|
|
| Q  q  H      W
|------------|------*|
|------------|------*|
|-5s=3-------|------*|
|------------|------*|
Добавлено: 02.06.2012
Другие материалы по этой песне:

Страница создана 15.04.2012
http://primanota.ru/pixies/tame-chords.htm
Привет, Гость.
Предлагаем пройти революционный курс по гитаре.
Подарок от PrimaNota.Ru, забирай!