PrimaNota.ru - самый крупный в мире бесплатный архив песенных текстов, аккордов, табулатур и нот


Pixies - Doolittle - бас-таба, видео

Регистрация Запомнить меня
Войти через:  Facebook Google Twitter Vk Yandex Mail.ru

Pixies - Doolittle - бас-таба, видео

Печатать
Просмотров: 135
Уроки эстрадного вокала в Санкт-Петербурге
The Pixies - Doolittle - 1989

Tracklist -

1. Debaser
2. Tame
3. Wave of Mutilation
4. I Bleed
5. Here Comes Your Man
6. Dead
7. Monkey Gone to Heaven
8. Mr. Grieves
9. Crackity Jones
10. La La Love You
11. No. 13 Baby
12. There Goes My Gun
13. Hey
14. Silver
15. Gouge Away

-----------------------------------------------------------------------------
			  Pixies - Debaser
-----------------------------------------------------------------------------

Tabbed By : Extra Blood
e-mail: Lenda@ofir.dk

Tuning: Standard

Intro:

G-|-----------------|-----------------|-----------------|-----------------
D-|-----------------|-----------------|-----------------|-----------------
A-|-----------------|-3-3-3-3---------|-5-5-5-5-0-0-0-0-|-1-1-1-1-3-3-3-3-
E-|-6-6-6-6-1-1-1-1-|---------1-1-1-1-|-----------------|-----------------

G-|-----------------|-----------------|-----------------|-----------------|
D-|*----------------|-----------------|-----------------|----------------*|
A-|*--------0-0-0-0-|-3-3-3-3-5-5-5-5-|-1-1-1-1-3-3-3-3-|---------x-3-3--*|
E-|-1-1-1-1---------|-----------------|-----------------|-3-3-3-3-------3-|

Verse: 

G-|-----------------|-----------------|
D-|-----------------|-----------------|
A-|---------1-1-1-1-|---------1-1-1-1-|
E-|-1-1-1-1---------|-3-3-3-3---------| 

   "...but i am un chien andalusia..."
G-|-----------------|-----------------|
D-|-----------------|-----------------|
A-|---------1-1-1-1-|---------1-1-1-3-|
E-|-1-1-1-1---------|-3-3-3-3---------|

Pre-chorus:

G-|-----------------|-----------------|
D-|-----------------|-----------------|
A-|-1-1-1-1-1-1-1-1-|-1-1-1-1-1-1-1-1-|
E-|-----------------|-----------------|

*Pause*

Chorus:

G-|-----------------|-----------------|-----------------|-----------------
D-|-----------------|-----------------|*----------------|-----------------
A-|-5-5-5-5-0-0-0-0-|-1-1-1-1-3-3-3-3-|*--------0-0-0-0-|-3-3-3-3-5-5-5-5-
E-|-----------------|-----------------|-1-1-1-1---------|-----------------

G-|-----------------|-----------------|
D-|-----------------|----------------*|
A-|-1-1-1-1-3-3-3-3-|---------x-3-3--*|
E-|-----------------|-3-3-3-3-------3-|

Bass rests for first half of the next verse.

-Verse

-Pre-chorus

*Pause*

-Chorus

Outro:

G-|-----------------|-----------------|-----------------|
D-|*----------------|----------------*|-----------------|
A-|*--------1-1-1-1-|---------1-1-1-1*|-----------------|
E-|-1-1-1-1---------|-3-3-3-3---------|-1---------------|
                                        ^Let Ring

-----------------------------------------------------------------------------
			  Pixies - Tame
-----------------------------------------------------------------------------

Tabbed By : Extra Blood
e-mail: Lenda@ofir.dk

Tuning: Standard

Pretty simple.

Intro / Verse:

G-|-----------------|-----------------|-----------------|-----------------
D-|-----------------|-----------------|-----------------|-----------------
A-|-5-5-x-5-5-5-x-3-|-3-3-x-3-3-3-x---|---------------5-|-5-5-x-5-5-5-x-3-
E-|-----------------|---------------1-|-1-1-x-1-1-1-x---|-----------------

G-|-----------------|-----------------|-----------------|-----------------
D-|-----------------|-----------------|-----------------|-----------------
A-|-3-3-x-3-3-3-x-8-|-8-8-x-8-8-8-x-5-|-5-5-x-5-5-5-x-3-|-3-3-x-3-3-3-x-8-
E-|-----------------|-----------------|-----------------|-----------------

G-|-----------------|-----------------|-----------------|-----------------|
D-|-----------------|-----------------|-----------------|-----------------|
A-|-8-8-x-8-8-8-x-5-|-5-5-x-5-5-5-x-3-|-3-3-x-3-3-3-x-8-|-8-8-x-8-8-8-x-x-|
E-|-----------------|-----------------|-----------------|-----------------|

Chorus:

G-|-----------------|-----------------|-----------------|
D-|*----------------|-----------------|----------------*|
A-|*5-5-5-5-5-5-5-5-|-3-3-3-3-3-3-3-3-|-8-8-8-8-8-8-8-8*|
E-|-----------------|-----------------|-----------------|

Now repeat the verse & chorus twice.

Outro:

G-|-----------------|-----------------|-----------------|----|
D-|*----------------|-----------------|----------------*|----|
A-|*5-5-5-5-5-5-5-5-|-3-3-3-3-3-3-3-3-|-8-8-8-8-8-8-8-8*|-5--|
E-|-----------------|-----------------|-----------------|----|

-----------------------------------------------------------------------------
			  Pixies - Wave of Mutilation
-----------------------------------------------------------------------------

Artist: Pixies
Song: Wave of Mutilation
Album: Doolittle
Tabber: Debaser 101

I've tabbed the whole song out so just play this through.

G-|-----------------|-----------------|-----------------|-----------------
D-|-----------------|-----------------|-----------------|-----------------
A-|-----------------|-----------------|-1---1-----------|-----------------
E-|-6-6-6-6-6-6-6-6-|-3-3-3-3-3-3-3-3-|---3---3-1-1-1-1-|-1-1-1-1-5-5-5-5-

G-|-----------------|-----------------|-----------------|-----------------
D-|-----------------|-----------------|-----------------|-----------------
A-|-----------------|-----------------|---------1---1---|-----------------
E-|-5-5-5-5-6-6-6-6-|-6-6-6-6-3-3-3-3-|-3-3-3-3---3---3-|-1-1-1-1-5-5-5-5-

G-|-----------------|-----------------|-----------------|-----------------
D-|-----------------|-----------------|-----------------|-----------------
A-|-----------------|-----------------|-----------------|-----------1---1-
E-|-6-6-6-6-1-1-1-1-|-5-5-5-5-6-6-6-6-|-1-1-1-1-5-5-5-5-|-6-6-6-6-3---3---

G-|-----------------|-----------------|-----------------|-----------------
D-|-----------------|-----------------|-----------------|-----------------
A-|-----------------|---------3---3---|-----------------|-----------------
E-|-1-1-1-1-1-0-1-0-|-5-5-5-5---5---5-|-6-6-6-6-6-6-6-6-|-3-3-3-6-6-5-5-3-

G-|-----------------|-----------------|-----------------|-----------------
D-|-----------------|-----------------|-----------------|-----------------
A-|-----------------|---------3---3---|-----------------|-----------------
E-|-1-1-1-1-1-0-1-0-|-5-5-5-5---5---5-|-6-6-6-6-6-6-6-6-|-3-3-3-6-6-5-5-3-

G-|-----------------|-----------------|-----------------|-----------------
D-|-----------------|-----------------|-----------------|-----------------
A-|-----------------|-----------------|-----------------|-----------------
E-|-1-1-1-1-1-1-1-1-|-5-5-5-5-5-5-5-5-|-6-6-6-6-6-6-6-6-|-3-3-3-3-6-3-6-3-

G-|-----------------|-----------------|-----------------|-----------------
D-|-----------------|-----------------|-----------------|-----------------
A-|-----------------|-----------------|-----------------|-----------------
E-|-1-1-1-1-5-5-5-5-|-6-6-6-6-1-1-1-1-|-5-5-5-5-6-6-6-6-|-1-1-1-1-5-5-5-5-

G-|-----------------|-----------------|-----------------|-----------------
D-|-----------------|-----------------|-----------------|-----------------
A-|-----------------|-----------------|-----------------|-----------------
E-|-6-6-6-1---------|-6---------------|-1---------------|-6---------------

G-|-----------------|-----------------|-----------------|-----------------
D-|-----------------|-----------------|-----------------|-----------------
A-|-----------------|-----------------|-----------------|-----------------
E-|-6-6-6-6-6-6-6-6-|-3-3-3-3-3-3-3-3-|-6-3-6-3-1-1-1-1-|-1-1-1-1-1-1-1-1-

G-|-----------------|-----------------|-----------------|-----------------
D-|-----------------|-----------------|-----------------|-----------------
A-|-----------------|-3---3-----------|-----------------|-----------------
E-|-1-0-1-0-5-5-5-5-|---5---5-6-6-6-6-|-6-6-6-6-3-3-3-6-|-6-5-5-3-1-1-1-1-

G-|-----------------|-----------------|-----------------|-----------------
D-|-----------------|-----------------|-----------------|-----------------
A-|-----------------|-3---3-----------|-----------------|-----------------
E-|-1-0-1-0-5-5-5-5-|---5---5-6-6-6-6-|-6-6-6-6-3-3-3-6-|-6-5-5-3-1-1-1-1-

G-|-----------------|-----------------|-----------------|-----------------
D-|-----------------|-----------------|-----------------|-----------------
A-|---------0-0-0-0-|-0-0-0-0-1-1-1-1-|-1-1-1-1---------|-1-------1-------
E-|-1-1-1-1---------|-----------------|---------3-3-3-3-|-----3-------3---

G-|-----------------|-----------------|-----------------|-----------------
D-|-----------------|-----------------|-----------------|-----------------
A-|-----------------|-----------------|-----------------|-----------------
E-|-1-1-1-1-5-5-5-5-|-6-6-6-6-1-1-1-1-|-5-5-5-5-6-6-6-6-|-1-1-1-1-5-5-5-5-

G-|-----------------|-----------------|-----------------|-----------------
D-|-----------------|-----------------|-----------------|-----------------
A-|-----------------|-----------------|-----------------|-----------------
E-|-6-6-6-1-1-1-1-1-|-1-1-1-5-5-6-6-5-|-5-6-6-1-1-1-1-1-|-1-1-1-66666/-8--

G-|-----------------|-----------------|-----------------|-----------------
D-|-----------------|-----------------|-----------------|-----------------
A-|-----------------|-----------------|-----------------|-----------------
E-|-1-1-1-1-5-5-5-5-|-6-6-6-6-1-1-1-1-|-5-5-5-5-6-6-6-6-|-1-1-1-1-5-5-5-5-

G|------------------|-----------------|-----------------|-----------------|
D|------------------|-----------------|-----------------|-----------------|
A|------------------|-----------------|-----------------|-----------------|
E|-6-6-6-1----------|-6---------------|-1---------------|-6---------------|

-----------------------------------------------------------------------------
			  Pixies - I Bleed
-----------------------------------------------------------------------------

Tabbed By : Extra Blood

Tuning: Standard

You basicly use this riff here, as the intro, and as the 
1st & 2nd verse. So you'll be playing this part alot!

G|------------------|------------------|-
D|*-----------------|------------------|-
A|*-----------------|------------------|-
E|-2-22/-9-99-9-9-9-|-2-22/-7-77-7-7-7-|-

G|------------------|------------------|
D|------------------|-----------------*|
A|------------------|-----------------*|
E|-2-22/-9-99-9-9-9-|-2-22/-7-77-7-7-7-|

The 1st & 2nd chorus is played like this:

G|-------------------|------------------|------------------|
D|*------------------|------------------|-----------------*| Just play once
A|*------------------|------------------|-----------------*| at the 1st chorus. 
E|--2-22/-9-99-9-9-9-|-2-22/-9-99-9-9-9-|-2-22/-9-99-9-9-9-|

Then re-play the intro & the 2nd verse,
then move on to the 2nd chorus.


Then after the chorus, there is this small 
part that fills in just before the solo.

G|-----------------|-----------------|-----------------|-----------------|
D|-----------------|-----------------|-----------------|-----------------|
A|-------2-4-4-3-2-|---------2-2-0---|-------2-4-4-3-2-|---------2-2-0---|
E|-2-2-2-----------|-2-2-2-4-------4-|-2-2-2-----------|-2-2-2-4-------4-|

Then comes the solo, which is played like this:

G|------------------|------------------|------------------|-------------|-
D|------------------|------------------|------------------|-------------|-
A|------------------|------------------|------------------|-------------|-
E|-2-22/-9-99-9-9-9-|-2-22/-9-99-9-9-9-|-2-22/-9-99-9-9-9-|-h5--(5)--5\-|-

G|-----------------|-----------------|-----------------|-----------------|-
D|-----------------|-----------------|-----------------|-----------------|-
A|-4-4-4-4---------|-----------------|-4-4-4-4---------|-----------------|-
E|---------0-0-0-0-|-1-1-1-1-5-5-5-5-|---------0-0-0-0-|-1-1-1-1-5-5-5-5-|-

G|-----------------|-----------------|-----------------|---------|
D|-----------------|-----------------|-----------------|---------|
A|-4-4-4-4---------|-----------------|-4-4-4-4---------|---------|
E|---------0-0-0-0-|-1-1-1-1-5-5-5-5-|---------0-0-0-0-|-2-2-2-2-|

Now play the out-chorus, like this:

G|------------------------|------------------------|------------------------|
D|------------------------|------------------------|------------------------|
A|------------------------|------------------------|------------------------|
E|-2-22/-10-1010-10-10-10-|-2-22/-10-1010-10-10-10-|-2-22/-10-1010-10-10-10-|

  Slow down at this part.
G|-------------------------|----------------------------|
D|-------------------------|----------------------------|
A|-------------------------|----------------------------|
E|-10-10-10-10-10-10-10-10-|-h5~-----------------(5)----|

And that's it!

-----------------------------------------------------------------------------
			  Pixies - Here Comes Your Man
-----------------------------------------------------------------------------

The Pixies - Here comes your man

Maybe it
Добавлено: 05.02.2014
Другие материалы по этой песне:
  • Аккорды и текст

Страница создана 05.02.2014
http://primanota.ru/pixies/doolittle-chords.htm
Привет, Гость.
Предлагаем пройти революционный курс по гитаре.
Подарок от PrimaNota.Ru, забирай!