PrimaNota.ru - самый крупный в мире бесплатный архив песенных текстов, аккордов, табулатур и нот


Pixies - Bagboy - текст песни, таба, видео

Регистрация Запомнить меня
Войти через:  Facebook Google Twitter Vk Yandex Mail.ru

Pixies - Bagboy - текст песни, таба, видео

Печатать
Просмотров: 264
Уроки эстрадного вокала в Санкт-Петербурге
"Bagboy" by Pixies

Verse 1

E|--------|---------------------|---------------|--------|---------------|--------|---------------|
B|--------|---------------------|---------------|--------|---------------|--------|---------------|
G|--------|-----4b-4br----------|-----7------5--|--------|--4b-4br-------|--------|-----7------5--|
D|--5--2--|--5------------5--2--|--7--7---5--5--|--5--2--|---------------|--5--2--|--7--7---5--5--|
A|--------|---------------------|--7--5---5--3--|--------|---------------|--------|--7--5---5--3--|
E|--3--0--|---------------3--0--|--5------3-----|--3--0--|------3--2pbr--|--3--0--|--5------3-----|

Verse 2

E|--------------|--------------------|---------------|--------------------|----------|
B|--------------|--------------------|---------------|--------------------|----------|
G|--------------|--12-12\9--9-9-9-9--|-----7------5--|--12-12\9--9-9-9-9--|--4b-4br--|
D|--5--2-2-2-2--|--12-12\9--9-9-9-9--|--7--7---5--5--|--12-12\9--9-9-9-9--|----------|
A|--------------|--10-10\7--7-7-7-7--|--7--5---5--3--|--10-10\7--7-7-7-7--|----------|
E|--3--0-0-0-0--|--------------------|--5------3-----|--------------------|----------|

Chorus

Guitar 1

E|-------------------------------------------------------------------------------------------------|
B|-12-12-12-12-13-13-13-13-12-12-12-12-10-10-10-10-8--8--8--8--7--7--7--7--8--8--8--8--3--3--3--3--|
G|-------------------------------------------------------------------------------------------------|
D|-------------------------------------------------------------------------------------------------|
A|-------------------------------------------------------------------------------------------------|
E|-------------------------------------------------------------------------------------------------|

E|-------------------------------------------------------------------------------------17-17-17-17-|
B|-12-12-12-12-13-13-13-13-12-12-12-12-17-17-17-17-17-17-17-17-19-19-19-19-20-20-20-20-------------|
G|-------------------------------------------------------------------------------------------------|
D|-------------------------------------------------------------------------------------------------|
A|-------------------------------------------------------------------------------------------------|
E|-------------------------------------------------------------------------------------------------|

Guitar 2

E|-------------------------------------------------------------------------------------------------|
B|-------------------------------------------------------------------------------------------------|
G|-------------------------------------------------------------------------------------7--7--7--7--|
D|-9--9--9--9--10-10-10-10-9--9--9--9--7--7--7--7--5--5--5--5--4--4--4--4--5--5--5--5-7---7--7--7--|
A|-9--9--9--9--10-10-10-10-9--9--9--9--7--7--7--7--5--5--5--5--4--4--4--4--5--5--5--5--5--5--5--5--|
E|-7--7--7--7--8--8--8--8--7--7--7--7--5--5--5--5--3--3--3--3--2--2--2--2--3--3--3--3--------------|

E|-------------------------------------------------------------------------------------------------|
B|-------------------------------------------------------------------------------------------------|
G|-------------------------------------9--9--9--9--9--9--9--9--11-11-11-11-12-12-12-12-14-14-14-14-|
D|-9--9--9--9--10-10-10-10-9--9--9--9--9--9--9--9--9--9--9--9--11-11-11-11-12-12-12-12-14-14-14-14-|
A|-9--9--9--9--10-10-10-10-9--9--9--9--7--7--7--7--7--7--7--7--9--9--9--9--10-10-10-10-12-12-12-12-|
E|-7--7--7--7--8--8--8--8--7--7--7--7--------------------------------------------------------------|

Outro

E|----------|--------------------|----------------|--------3/11--|
B|----------|--------------------|----------------|-------3------|
G|----------|--12-12\9--9-9-9-9--|--4b-4br--------|------3-------|
D|--5pbr-2--|--12-12\9--9-9-9-9--|----------------|--------------|
A|----------|--10-10\7--7-7-7-7--|----------------|--------------|
E|---3---0--|--------------------|------3---2pbr--|--3h0---------|

So, thats how i think the song goes (rate please)
If you have any idea to improve te tab, let me know
I hope i've helped you
Thanks for watching!
Добавлено: 10.02.2014
Другие материалы по этой песне:
  • Аккорды и текст

Страница создана 10.02.2014
http://primanota.ru/pixies/bagboy-chords.htm
Привет, Гость.
Предлагаем пройти революционный курс по гитаре.
Подарок от PrimaNota.Ru, забирай!