PrimaNota.ru - самый крупный в мире бесплатный архив песенных текстов, аккордов, табулатур и нот


Pitty - O Lobo - аккорды и текст, видео

Регистрация Запомнить меня
Войти через:  Facebook Google Twitter Vk Yandex Mail.ru

Pitty - O Lobo - аккорды и текст, видео

Печатать
Просмотров: 91
O Lobo
Pitty
Tom: E
                
INTRO:


(E   G E) 4x
                                         - 1a vez -         - 2a vez -
E|-----------------------------------|-----------------|---------------------
B|-----------------------------------|-9/10-10-10-9----|-9/10-10-10-10/12~---
G|-9-9-9-7-9~--9-9-9-7---------------|--------------9~-|---------------------
D|---------------------10-9/10/9-7-9-|-----------------|---------------------
A|-----------------------------------|-----------------|---------------------
E|-----------------------------------|-----------------|---------------------


 
   (E  G E)
   Houve um tempo em que os homens em suas tribos eram iguais
   Veio a fome e então a guerra, pra alimenta-los como animais, não
   Houve tempo em que o homem por sobre a terra viveu em paz
   Desde sempre tudo é motivo pra jorrar sangue cada vez mais

  
     A          B       A        B
   O homem é, o lobo do homem, o loboo
     A          B       A        B C
   O homem é, o lobo do homem, o loboo

  
   (E  G E)
   Sempre em busca do próprio gozo, e todo zelo ficou pra trás
   Nunca sede e nem esquece o que aprendeu com seus ancestrais
   Não perdoa e nem releva, nunca vê que já é demais
   
  
     A          B       A        B
   O homem é, o lobo do homem, o loboo
     A          B       A        B C
   O homem é, o lobo do homem, o loboo

   
   (E  G E) 

SOLO: 
    - 4x cada  -                                - 4X a sequencia -   - 4x - 

E|-|19-19-19-19-|1912---12---------------------|---15/17-17------|---17/19-|-19/7--
B|--------------------12~--12-12-15-12-15/17-15-|-12--------------|---------|-------
G|----------------------------------------------------------------------------------
D|----------------------------------------------------------------------------------
A|----------------------------------------------------------------------------------
E|----------------------------------------------------------------------------------


  
   (E  G E)
   Houve um tempo em que os homens em suas tribos eram iguais
   Veio a fome e então a guerra, pra alimenta-los como animais, não
   Houve tempo em que o homem por sobre a terra viveu em paz
   Desde sempre tudo é motivo pra jorrar sangue cada vez mais

   
     A          B       A        B
   O homem é, o lobo do homem, o loboo
     A          B       A         B 
   O homem é, o lobo do homem, o loboo

     A          B       A        B
   O homem é, o lobo do homem, o loboo
     A          B       A        B C
   O homem é, o lobo do homem, o loboo

   
   (E  G E)
Добавлено: 15.07.2015
Другие материалы по этой песне:
  • Аккорды и текст

Страница создана 03.05.2012
http://primanota.ru/pitty/o-lobo-chords.htm
Привет, Гость.
Предлагаем пройти революционный курс по гитаре.
Подарок от PrimaNota.Ru, забирай!