PrimaNota.ru - самый крупный в мире бесплатный архив песенных текстов, аккордов, табулатур и нот


Pito Prez - Western - таба, бас-таба, видео

Регистрация Запомнить меня
Войти через:  Facebook Google Twitter Vk Yandex Mail.ru

Pito Prez - Western - таба, бас-таба, видео

Печатать
Просмотров: 50
Artista: Pito Perez
Cancion: Western
Tabber: Jacobo

Saken el orden de la rola, si??

e--------
B--------
G--3--2--
D--2--1--
A--3--2--
E--------

e----------------------------|-----------------------------
B----------------------------|-----------------------------
G----------------------------|-----------------------------
D----------------------------|----2-----2-------------4----
A---2-----2-----2-------4----|--0---0-3---3---2---3/5---5--
E-0---0-0---0-3---3-3/5---5--|--------------3---3----------

e--------
B--------
G--3--2--
D--2--1--
A--3--2--
E--------

e--12-12-10-10-9-9-9-9-8-8-7--12-12-10-12-12-10-12-14-12-10-12--------
B---9--9--7--7-6-6-6-6-5-5-4------------------------------------------
G---------------------------------------------------------------------
D---------------------------------------------------------------------
A---------------------------------------------------------------------
E---------------------------------------------------------------------

e--------------------
B--------------------
G--9----7----6----5--
D--6----6----7----7--
A--7----7----7----7--
E--------------------

Solo
Lleva unos hammers muy extraños del 3 al 5 y del 10 al 12, y me da flojera
transcribirlos.... espero ke los puedan sacar....

e--------------------x-x-7-x-9-x-12-12-12-12---15-15-15p12-12-12-12-----------
B--3h5-----10h12-----x-x-7-x-x-x-12-12-12-12------------------------15p12-----
G--------------------x-x---x-9-x-12-12-12-12------------------------------14--
D-----------------------------------------------------------------------------
A-----------------------------------------------------------------------------
E-----------------------------------------------------------------------------

e--15-15-15p12-12-12-----------
B--------------------15-15/17--
G------------------------------
D------------------------------
A------------------------------
E------------------------------

Creo ke ya es todo, solo tienen ke sacar el final.... Suerte
Добавлено: 05.04.2016
Другие материалы по этой песне:
  • Аккорды и текст

Страница создана 05.03.2016
http://primanota.ru/pito-prez/western-chords.htm
Привет, Гость.
Предлагаем пройти революционный курс по гитаре.
Подарок от PrimaNota.Ru, забирай!