PrimaNota.ru - самый крупный в мире бесплатный архив песенных текстов, аккордов, табулатур и нот


Pito Prez - Wenster - таба, видео

Регистрация Запомнить меня
Войти через:  Facebook Google Twitter Vk Yandex Mail.ru

Pito Prez - Wenster - таба, видео

Печатать
Просмотров: 100
Уроки эстрадного вокала в Санкт-Петербурге
Este tab yo mismo lo saque y si me suena igual,
asi va en la version demo va con distor, aunque detodos
modos la version normal es igual pero va sin distor.

Intro 
e--0-----0---
B--3-----2---
G--2-----2---
D--3-----1---
A--3-----2---
E--0-----0--- 

Esto va con distor o limpio, es igual
 a las 2 versiones que yo conosco
e-----------------------------------
B-----------------------------------Fuuuiifuuiuuuu fuuiuufiiuuu 
G-----------------------------------
D-----------------------------------
A----2-----2----2-----0-------------eeestoy pensando en voz...!!
E---0--0-3--3-2---2-2---2-----------

e-----------------------------------
B-----------------------------------
G-----------------------------------un acorde mas
D----2-----2----2-----0-------------me hace recordar
A---0--0-3--3-2---2-2---2-----------
E-----------------------------------

e--0-----0---
B--3-----2---
G--2-----2---
D--3-----1---unoo maaaas!!
A--3-----2---
E--0-----0---

e-----------------------------------------
B-----------------------------------------
G-----------------------------------------vos quereis
D-----------------------------------------tomeis pero
A---17h-17h-15h-15h-14h-14h-14-12-14-11---jamas quereis
E-----------------------------------------

e-----------------------------------------
B-----------------------------------------
G-----------------------------------------ay que caray
D-----------------------------------------que caray 
A-----------------------------------------y que caray!!
E---15-13-15-15-13-15-16-15-13-15---------

y se repiten denuevo

ay que caray que cara y que caray ¬_¬

e-----------------------------------------
B-----------------------------------------
G--9------8------7------6-----------------
D--9------8------7------6-----------------
A--7------6------5------4-----------------
E-----------------------------------------

Solo
e------------------------------------------------
B------------------------------------------------
G------------------------------------------------
D------------------------------------------------ 
A--3h5-3h5-se repiten--10h12-10h12-se repiten----
E------------------------------------------------

e------------------------------------------------------------------------------
B------------------------------------------------------------------------------
G------------------------------------------------------------------------------
D--10-x-x-12-x-x-13-12-10------------------------------------------------------
A--10-x-x-12-x-x-13-12-10--12---------------12b~~--12--------------12----------
E-----------------------------10-12-13-12-10---------10-12-13-12-10--10-12b~~~-


y otra ves se repide lo de

Paraa ti para mii!!!
e-----------------------------------------
B-----------------------------------------
G--9------8------7------6-----------------
D--9------8------7------6-----------------
A--7------6------5------4-----------------
E-----------------------------------------
cieelo eteernoooooo

voz quereis
tomeis pero
jamas quereis

Final
e-----------------------------------------
B-----------------------------------------
G--/7-------------------------------------
D-----5-7-7b(1/4)7-5-7b(1/4)~~~~----------
A-----------------------------------------
E-----------------------------------------

Fiiin!! ya eso es todoo hee!!
Viva yo!!
Espero que la toquen puesto que la neta esta bien
Cualquier duda o aclaracion a mi mail 

caifan_vampiro@ 

Sax! ahi se ven
Добавлено: 05.03.2016
Другие материалы по этой песне:
  • Аккорды и текст

Страница создана 05.03.2016
http://primanota.ru/pito-prez/wenster-chords.htm
Привет, Гость.
Предлагаем пройти революционный курс по гитаре.
Подарок от PrimaNota.Ru, забирай!