PrimaNota.ru - самый крупный в мире бесплатный архив песенных текстов, аккордов, табулатур и нот


Pito Prez - Todo Lo Que Soy - бас-таба, видео

Регистрация Запомнить меня
Войти через:  Facebook Google Twitter Vk Yandex Mail.ru

Pito Prez - Todo Lo Que Soy - бас-таба, видео

Печатать
Просмотров: 32
eN ESTA ROLA ABRAHAM USA MUCHO SLAPPIN,
ASI QUE ESPERO K ESTO LES AYUDE.

iNTRO
G----2-----2---------4--------------
D------------2/4----------2/4-----2/4
A----------------2-2----------------
E-2-2--2-2-----------2222-----2222---

G----2-----2---------4-------9------11
D------------2/4----------------------
A----------------2-2------77---77/9---
E-2-2--2-2----------------------------

vERSO
G----2-----X-------4----X----
D------------2/4----------2/4
A---------------2-2--2-2-----
E-2-2--2-2-------------------

pRE-cORO
G-----------------
D-----------------
A-5-5-5-5-5-2-2-2-2
E------------------

cORO
G----------------------------------------
D---------------------------------------2
A---------7777-66-45555-4444-2-----2-4-5-
E-2222-1111--------------------2-4-5------

iNTERLUDE
G-----------
D---4-3-----
A--4---0-2-0
E-2---------

sALUDOS A lAlA,yUPE,kEkA,7d Y tONYbALD...
Добавлено: 05.03.2016
Другие материалы по этой песне:
  • Аккорды и текст

Страница создана 05.03.2016
http://primanota.ru/pito-prez/todo-lo-que-soy-chords.htm
Привет, Гость.
Предлагаем пройти революционный курс по гитаре.
Подарок от PrimaNota.Ru, забирай!