PrimaNota.ru - самый крупный в мире бесплатный архив песенных текстов, аккордов, табулатур и нот


Pito Prez - Pito Perez - аккорды и текст, таба, бас-таба, видео

Регистрация Запомнить меня
Войти через:  Facebook Google Twitter Vk Yandex Mail.ru

Pito Prez - Pito Perez - аккорды и текст, таба, бас-таба, видео

Печатать
Просмотров: 79
Уроки эстрадного вокала в Санкт-Петербурге
Pito Perez
Pito Prez
Entra el bajo

B                C#
Encontré un amuleto 
                    B              
que me hace sentir bien
            C#        
Ya puedo dejar de soñar


B                C#
Encontré un amuleto 
                    B              
que me hace sentir bien
            C#        
Ya puedo dejar de soñar

*Distor
B, C, C#
B, C, C#
-----------------------------------------------------E
-----------------------------------------------------A
-----------------------------------------------------D
---4/6---6-----6-------------------------------------G
-------4---4-----4--7--------------------------------b
-----------------------------------------------------e

B, C, C#
B, C, C#

-----------------------------------------------------E
-----------------------------------------------------A
-----------------------------------------------------D
-----------------------------------------------------G
---3/4-----------------------------------------------b
-----------------------------------------------------e


 B            C#
Eres, lo que yo andaba buscando
 B            C#
Por lo que me andaba preocupando
 B            C#
Eres, tal y como yo te pintaba  
 B         C#
Eres, La mitad que me faltaba 

*En esta parte no lleva acorde, lleva este arreglo.

-----------------------------------------------------E
------------------2-3-4------------------------------A
-----------2-3-4---------2-3-4-----------------------D
----2-3-4--------------------------------------------G
-----------------------------------------------------b
-----------------------------------------------------e
                 La mitad que me faltaba


-----------------------------------------------------E
------------------2-3-4------------------------------A
-----------2-3-4-------------------------------------D
----2-3-4--------------------------------------------G
-----------------------------------------------------b
-----------------------------------------------------e
                         La mitad que me faltaba


-----------------------------------------------------E
------------------2-3-4------------------------------A
-----------2-3-4---------2-3-4-----------------------D
----2-3-4--------------------------------------------G
-----------------------------------------------------b
-----------------------------------------------------e
   Embolsaste,  
                            F
----------------------------1------------------------E
------------------2-3-4-----3------------------------A
-----------2-3-4------------3------------------------D
----2-3-4--------------------------------------------G
-----------------------------------------------------b
-----------------------------------------------------e
    E vida


 B                C#
Encontré un amuleto 
                    B              
que me hace sentir bien
            C#        
Ya puedo dejar de soñar


B                C#
Encontré un amuleto 
                    B              
que me hace sentir bien
            C#        
Ya puedo dejar de soñar

*Distor
B, C, C#
B, C, C#
-----------------------------------------------------E
-----------------------------------------------------A
-----------------------------------------------------D
---4/6---6-----6-------------------------------------G
-------4---4-----4--7--------------------------------b
-----------------------------------------------------e

B, C, C#
B, C, C#

-----------------------------------------------------E
-----------------------------------------------------A
-----------------------------------------------------D
-----------------------------------------------------G
---3/4-----------------------------------------------b
-----------------------------------------------------e


 B             
Quiero, Quiero entenderte, 
       C#
te busque yo te encontré muy fácilmente 
B                  C#
Lo que yo necesitaba 


 B               C#
Donde, donde quieras
 B               C#
Cuando, cuado tengas que olvidar 

*Arpegio

 F#         G#m                  C#              B
Siempre va estar, te juro que tu mal se te va esfumar
 F#         G#m                  C#              B
Siempre va estar, te juro que tu mal se te va esfumar
 F#         G#m                  C#              B
Siempre va estar, te juro que tu mal se te va esfumar
 F#         G#m                  C#              B
Siempre va estar, te juro que tu mal se te va esfumar

*En esta parte no lleva acorde, lleva este arreglo.

-----------------------------------------------------E
---4-3-2---------------------------------------------A
-----------------------------------------------------D
-----------------------------------------------------G
-----------------------------------------------------b
-----------------------------------------------------e

-----------------------------------------------------E
------------------2-3-4------------------------------A
-----------2-3-4---------2-3-4-----------------------D
----2-3-4--------------------------------------------G
-----------------------------------------------------b
-----------------------------------------------------e
                 La mitad que me faltaba
-----------------------------------------------------E
------------------2-3-4------------------------------A
-----------2-3-4-------------------------------------D
----2-3-4--------------------------------------------G
-----------------------------------------------------b
-----------------------------------------------------e
                         La mitad que me faltaba
-----------------------------------------------------E
------------------2-3-4------------------------------A
-----------2-3-4---------2-3-4-----------------------D
----2-3-4--------------------------------------------G
-----------------------------------------------------b
-----------------------------------------------------e
   Embolsaste,  
                            


                            F
----------------------------1------------------------E
------------------2-3-4-----3------------------------A
-----------2-3-4------------3------------------------D
----2-3-4--------------------------------------------G
-----------------------------------------------------b
-----------------------------------------------------e
    E vida


Добавлено: 05.03.2016
Другие материалы по этой песне:
  • Аккорды и текст

Страница создана 05.03.2016
http://primanota.ru/pito-prez/pito-perez-chords.htm
Привет, Гость.
Предлагаем пройти революционный курс по гитаре.
Подарок от PrimaNota.Ru, забирай!