PrimaNota.ru - самый крупный в мире бесплатный архив песенных текстов, аккордов, табулатур и нот


Pito Prez - Lonche - таба, видео

Регистрация Запомнить меня
Войти через:  Facebook Google Twitter Vk Yandex Mail.ru

Pito Prez - Lonche - таба, видео

Печатать
Просмотров: 73
Casi todo la rola se repiten los mismos acordes solo 
es kuestion de ver donde va kada uno

Intro
e----------------------------
B----------------------------
G-7-5------------------------  X2
D-----7-5-5-7-5--3-2-------3-
A--------------------5-3-5---
E----------------------------

e--------------------------------------
B--------------------------------------
G-7-7-7-7-9-7-9h10-9-7-7-14/10-10h12-7-  X2
D--------------------------------------
A--------------------------------------
E--------------------------------------

*Parte donde va el sax

e--------------------------------------
B--------------------------------------
G-7-5----------------7-5-----------3-2-
D-----7-5-5-7-5--3-2-----7-5-5-7-5-----
A--------------------------------------
E--------------------------------------

e-------------------------------------------
B-------------------------------------------
G-7-7-7-7-9-7--9h10--9-7-7--14/10--10/16h17-
D-------------------------------------------
A-------------------------------------------
E-------------------------------------------
Добавлено: 05.03.2016
Вам также может быть интересно:
Другие материалы по этой песне:
  • Аккорды и текст

Страница создана 05.03.2016
http://primanota.ru/pito-prez/lonche-chords.htm
Привет, Гость.
Предлагаем пройти революционный курс по гитаре.
Подарок от PrimaNota.Ru, забирай!