PrimaNota.ru - самый крупный в мире бесплатный архив песенных текстов, аккордов, табулатур и нот


Pito Prez - Huarache Skate - таба, бас-таба, видео

Регистрация Запомнить меня
Войти через:  Facebook Google Twitter Vk Yandex Mail.ru

Pito Prez - Huarache Skate - таба, бас-таба, видео

Печатать
Просмотров: 84
Уроки эстрадного вокала в Санкт-Петербурге
Para tokar chido esta cancion tienen q afinarla la guitarra en droped D
(bajar la sexta cuerda a re)


Riff 1                        Riff 2
e|------------|  y acaba con e|--------|
B|------------|              B|--------|
G|------------|              G|--------|
D|-0-3-0-3/5--|              D|-6-5-3--|
A|-0-3-0-3/5--|              A|-6-5-3--|
D|-0-3-0-3/5--|              D|-6-5-3--|


Riff 3 x3

e|---------------------------------12-|
B|------------------------------------|
G|------------------------------------|
D|-----3---6-5-3----------------------|
A|---------------6-5-3-1-0-1-3-5------|
D|-0-0---0----------------------------|


Riff 4                         1 ra vez        2da vez
e|---------------------------|---------------|------------|
B|--------12-----------------|---------------|------------|
G|--------x------11-------9--|---11--10/11---|11-11-11-11-|
D|--------9------x--------x--|---x---x-------|x--x--x--x--|
A|---------------9--------7--|---9---9-------|9--9--9--9--|
D|-xxxxxx---xxxxx--xxxxxxx--x|xxx--x---------|------------|


Riff 5 x2
e|---4--5---7----9----11---12----14----|
B|-------------------------------------|
G|-4---6---8---11---13---15---17-------|
D|-------------------------------------|
A|-------------------------------------|
D|-------------------------------------|


e|--0-19191919--1818181818--16/1717171717--16/171717171717---|
B|-0---------------------------------------------------------|
G|-----------------------------------------------------------|
D|-----------------------------------------------------------|
A|-----------------------------------------------------------|
D|-----------------------------------------------------------|

el tapping pueden hacerlo en base al traste 17
e improvisar cn la izquierda

Riff 6

e|--------------3---3--------3-------------|
B|--88888-------3---3--------3-------------|
G|--77777-------3---3--------3-------------|
D|--55555---------3---3--5-3---3---3-2-0---|
A|----------------3---3--5-3---3---3-2-0---|
D|----------------3---3--5-3---3---3-2-0---|


huarache skate!!!!
ahi se las dejo y escuchen aceite para bebe
Добавлено: 05.04.2016
Другие материалы по этой песне:
  • Аккорды и текст

Страница создана 05.03.2016
http://primanota.ru/pito-prez/huarache-skate-chords.htm
Привет, Гость.
Предлагаем пройти революционный курс по гитаре.
Подарок от PrimaNota.Ru, забирай!