PrimaNota.ru - самый крупный в мире бесплатный архив песенных текстов, аккордов, табулатур и нот


Pito Prez - Convénceme - таба, видео

Регистрация Запомнить меня
Войти через:  Facebook Google Twitter Vk Yandex Mail.ru

Pito Prez - Convénceme - таба, видео

Печатать
Просмотров: 84
Уроки эстрадного вокала в Санкт-Петербурге
Versión de José Eduardo Cortez Medina


Legendas de la tablatura
h= hammer/golpear
 s= slide/deslizar
x=ahogar
~=vibrato

Intro guitarra acompañamiento ?sin agudos? (junto con la clean)
E||-------------------------------------------------------------------|
B||-------------------------------------------------------------------|
G||--4-------------7-------5----------7-----7---------------------5---|
D||--5-------------5-------5----------5-----5---------------------5---|
A||-------------------------------------------------------------------|
E||-------------------------------------------------------------------|
Intro guitarra clean
E||---------------------------------------------------------------0---|
B||------------------------------0----------3--------5--3---------0---|
G||--2h--4-----0--------------0-------0---------0----------0------5---|
D||---------2------2h--4---2-------------2--------2---------------5---|
A||---------------------------------------------------------------3---|
E||-------------------------------------------------------------------|

E||-------------------------------------------------------------------------|
B||-----------------------------0----------3--------5--3--------------------|
G||--2h--4-----0------0-------0-----0-------0-----0-------0------5-------0--|
D||---------2------2------------------2--------2-------------------5-------2|
A||-----------------------2------------------------------------------3------|
E||-------------------------------------------------------------------------|

Repite por 7
E||------------------------------------------0------------------------|
B||------------------------------0-----------0------------------------|
G||--2h--4-----0--------------0-------0------7------------------------|
D||---------2------2h--4---2-------------2---7------------------------|
A||------------------------------------------5------------------------|
E||-------------------------------------------------------------------|


Final de guitarra clean


Guitarra eléctrica con distorsión (junto con la de acompañamiento)
E||------------------------------8s-10--8--7--8-7------------|
B||-----------------------7--8--------------------8----------|
G||--4--5--7--5--7--9--9-------------------------------------|
D||----------------------------------------------------------|
A||----------------------------------------------------------|
E||----------------------------------------------------------|


Guitarra eléctrica (de acompañamiento) con distorsión
E||---------------------------------------------------|
B||---------------------------------------------------|
G||--5x-5x-5x-5x-5x-5x-5x-5x-5x-5x-5x-5x-5-5-5-5-5-5--|
D||--5x-5x-5x-5x-5x-5x-5x-5x-5x-5x-5x-5x-5-5-5-5-5-5--|
A||--3x-3x-3x-3x-3x-3x-3x-3x-3x-3x-3x-3x-3-3-3-3-3-3--|
E||---------------------------------------------------|


Coro Guitarra  con distorsión
E||-------------------------------------------------------|
B||-------------------------------------------------------|
G||-----------5---x-x--7------7---x-x-x-x-----------------|
D||--7---x-x--5---x-x--7------7---x-x-x-x-----------------|
A||--7---x-x--3---x-x--5------5---x-x-x-x-----------------|
E||--5---x-x----------------------------------------------|


Repite por 4

E||---------------------------------------------------|
B||---------------------------------------------------|
G||---5-5-5-5-5-5-5-5-5-------------------------------|
D||---5-5-5-5-5-5-5-5-5--4-----2----------------------|
A||---3-3-3-3-3-3-3-3-3--4-----2----------------------|
E||----------------------2-----0----------------------|


Final de guitarra con distorsión
Guitarra clean
E||-----------------------------------------------------------0---|
B||------------------------------0---------------0------0-----0---|
G||--2h--4-----0--------------0-------0-----2--0------2-------5---|
D||---------2------2h--4---2-------------2----------4---------5---|
A||-----------------------------------------------------------3---|
E||---------------------------------------------------------------|


E||-------------------------------------------------------------------------|
B||-----------------------------0----------3--------5--3--------------------|
G||--2h--4-----0------0-------0-----0-------0-----0-------0------5-------0--|
D||---------2------2------------------2--------2-------------------5-------2|
A||-----------------------2------------------------------------------3------|
E||-------------------------------------------------------------------------|


Repite por 2
E||------------------------------------------0------------------------|
B||------------------------------0-----------0------------------------|
G||--2h--4-----0--------------0-------0------7------------------------|
D||---------2------2h--4---2-------------2---7------------------------|
A||------------------------------------------5------------------------|
E||-------------------------------------------------------------------|
Final de guitarra clean


Guitarra eléctrica con distorsión (junto con la de acompañamiento)
E||------------------------------8s-10--8--7--8-7------------|
B||-----------------------7--8--------------------8----------|
G||--4--5--7--5--7--9--9-------------------------------------|
D||----------------------------------------------------------|
A||----------------------------------------------------------|
E||----------------------------------------------------------|

Guitarra eléctrica (de acompañamiento ) con distorsión
E||---------------------------------------------------|
B||---------------------------------------------------|
G||--5x-5x-5x-5x-5x-5x-5x-5x-5x-5x-5x-5x-5-5-5-5-5-5--|
D||--5x-5x-5x-5x-5x-5x-5x-5x-5x-5x-5x-5x-5-5-5-5-5-5--|
A||--3x-3x-3x-3x-3x-3x-3x-3x-3x-3x-3x-3x-3-3-3-3-3-3--|
E||---------------------------------------------------|


Coro Guitarra  con distorsión
E||-------------------------------------------------------|
B||-------------------------------------------------------|
G||-----------5---x-x--7------7---x-x-x-x-----------------|
D||--7---x-x--5---x-x--7------7---x-x-x-x-----------------|
A||--7---x-x--3---x-x--5------5---x-x-x-x-----------------|
E||--5---x-x----------------------------------------------|


Repite por 4

E||---------------------------------------------------|
B||---------------------------------------------------|
G||---5-5-5-5-5-5-5-5-5-5-5-5-------------------------|
D||---5-5-5-5-5-5-5-5-5-5-5-5-------------------------|
A||---3-3-3-3-3-3-3-3-3-3-3-3-------------------------|
E||---------------------------------------------------|


Solo
E||---------------------------------------------------------|
B||---------------------------------------------------------|
G||---------------------------------------------------------|
D||-------------2s-4---4-5-5~~~--5--4-----------------------|
A||-------2-4-5------5---------------5-4~-----5--4--2-4~----|
E||-2-3-5---------------------------------------------------|


E||---------------------------------------------------------|
B||---------------------------------------------------------|
G||---------------------------------------------------------|
D||-------------2s-4---4-5-5~~~--5--4-----------------------|
A||-------2-4-5------5---------------5-4~-----5--4--2-------|
E||-2-3-5----------------------------------------------2~~--|


E||------14------12------10------9------------------9-----------------------|
B||--10------10------10------10-----------------------10--------------------|
G||-------------------------------------11---11----------12-11h-12----7-----|
D||----------------------------------9-----9-----9--------------------------|
A||-------------------------------------------------------------------------|
E||-------------------------------------------------------------------------|


E||---------------------------------------------------|
B||---------------------------------------------------|
G||--7-7-7-7-7-7-7----6--4---4s6--6s7---7s9---9s6-----|
D||---------------------------------------------------|
A||--5-5-5-5-5-5-5----4--2---2s4--4s5---5s7---7s4-----|
E||---------------------------------------------------|

E||------14------12------10------9------------------9~~-------------10~~--|
B||--10------10------10------10-------------------------------------------|
G||-------------------------------------11---11----------11----11---------|
D||----------------------------------9-----9-----9----------9-----9-------|
A||-----------------------------------------------------------------------|
E||-----------------------------------------------------------------------|

E||-----------------------------------------------------------------------17~|
B||----------------------------------------------------------------5--7--8---|
G||----------------------------------------4--5--7--------4--5--7------------|
D||----------------4--5--7--------4--5--7---------4--5--7--------------------|
A||--------3--5--7---------3--5--7-------------------------------------------|
E||-3--5--7------------------------------------------------------------------|

E||---------------------------------------------------|
B||---------------------------------------------------|
G||---------------------------------------------------|
D||--2-x-x----5-x-x----7----7-x-x-x-x-----------------|
A||--2-x-x----5-x-x----7----7-x-x-x-x-----------------|
E||--0-x-x----3-x-x----5----5-x-x-x-x-----------------|
Repite por 6

Final
E||---------------------------------------------------|
B||---------------------------------------------------|
G||-5-5-5-5-5-5-5-5-5----7----------------------------|
D||-5-5-5-5-5-5-5-5-5----7---------2------------------|
A||-3-3-3-3-3-3-3-3-3----5---------2------------------|
E||--------------------------------0------------------|
Добавлено: 05.03.2016
Другие материалы по этой песне:
  • Аккорды и текст

Страница создана 05.03.2016
http://primanota.ru/pito-prez/convenceme-chords.htm
Привет, Гость.
Предлагаем пройти революционный курс по гитаре.
Подарок от PrimaNota.Ru, забирай!