PrimaNota.ru - самый крупный в мире бесплатный архив песенных текстов, аккордов, табулатур и нот


Pitch - Pitch And Hold - Maillot Jaune - таба, видео

Регистрация Запомнить меня
Войти через:  Facebook Google Twitter Vk Yandex Mail.ru

Pitch - Pitch And Hold - Maillot Jaune - таба, видео

Печатать
Просмотров: 97
Уроки эстрадного вокала в Санкт-Петербурге
		   Pitch and hold – Maillot Jaune


Artiste : Pitch and Hold
Titre : Maillot Jaune
Genre : Techno / Emo / Electro
Adresse pour écouter la chanson : http://profile.myspace.com/index.cfm?fuseaction=user.viewprofile&friendid=48681581

Je fais de la guitare acoustique depuis trois mois et voici ma première tablature ! C'est une chanson Electro donc ce n'est pas forcément le son d'une guitare que j'ai retranscrit ! Il faut juste deux guitare et une basse pour la jouer XD ! A première guitare ne joue que sur les trois premières cordes (eBG), la seconde joue sur toutes les cordes !!
Pour plus d'informations : bk.anais@hotmail.fr

Enjoy it !!

Modèle : eBGDAE pour guitare
Modèle : GDAE pour basse

Guitare 1 :
e|---------------------------------------------|
B|---------------------------------------------|
G|--5-5-5-6-6--5-5-5-6-6--5-5-5-6-6--5-5-5-6-6-|
Guitare 2 :
e|---------------------------------------------|
B|---------------------------------------------|
G|---------------------------------------------|
D|---------------------------------------------|
A|---------------------------------------------|
E|---------------------------------------------|
Basse :
G|---------------------------------------------|
D|---------------------------------------------|
A|--8-8-8-8----8-8-8-8----8-8-8-8----8-8-8-8---|
E|---------------------------------------------|

Guitare 1 :
e|---------------------------------------------|
B|---------------------------------------------|
G|--5-5-5-6-6--5-5-5-6-6--5-5-5-6-6--5-5-5-6-6-|
Guitare 2 :
e|---------------------------------------------|
B|---------------------------------------------|
G|---------------------------------------------|
D|---------------------------------------------|
A|---------------------------------------------|
E|---------------------------------------------|
Basse :
G|---------------------------------------------|
D|---------------------------------------------|
A|--8-8-8-8----8-8-8-8----8-8-8-8----8-8-8-8---|
E|---------------------------------------------|

Guitare 1 :
e|----------------------------------------------------------------|
B|-13-13-13-14-14--13-13-13-14-14--13-13-13-14-14--13-13-13-14-14-|
G|----------------------------------------------------------------|
Guitare 2 :
e|----------------------------------------------------------------|
B|----------------------------------------------------------------|
G|----------------------------------------------------------------|
D|----------------------------------------------------------------|
A|----------------------------------------------------------------|
E|----------------------------------------------------------------|
Basse :
G|----------------------------------------------------------------|
D|----------------------------------------------------------------|
A|-8-8-8-8-8-------8-8-8-8-8-------8-8-8-8-8-------8-8-8-8-8------|
E|----------------------------------------------------------------|

Guitare 1 :
e|----------------------------------------------------------------|
B|-13-13-13-14-14--13-13-13-14-14--13-13-13-14-14--13-13-13-14-14-|
G|----------------------------------------------------------------|
Guitare 2 :
e|----------------------------------------------------------------|
B|----------------------------------------------------------------|
G|----------------------------------------------------------------|
D|----------------------------------------------------------------|
A|----------------------------------------------------------------|
E|----------------------------------------------------------------|
Basse :
G|----------------------------------------------------------------|
D|----------------------------------------------------------------|
A|-8-8-8-8-8-------8-8-8-8-8-------8-8-8-8-8-------8-8-8-8-8------|
E|----------------------------------------------------------------|

Guitare 1 :
e|----------------------------------------------------------------|
B|-13-13-13-14-14--13-13-13-14-14--13-13-13-14-14--13-13-13-14-14-|
G|----------------------------------------------------------------|
Guitare 2 :
e|----------------------------------------------------------------|
B|----------------------------------------------------------------|
G|----------------------------------------------------------------|
D|----------------------------------------------------------------|
A|----------------------------------------------------------------|
E|----------------------------------------------------------------|
Basse :
G|----------------------------------------------------------------|
D|----------------------------------------------------------------|
A|-8-8-8-8-8-------8-8-8-8-8-------3-3-3-3-3-------3-3-3-3-3------|
E|----------------------------------------------------------------|

Guitare 1 :
e|--------------------------------------------------------------------|
B|-13-13-13-14-14--13-13-13-14-14--13-13-13-14-14--13-13-13-14-14-----|
G|--------------------------------------------------------------------|
Guitare 2 :
e|--------------------------------------------------------------------|
B|--------------------------------------------------------------------|
G|--------------------------------------------------------------------|
D|--------------------------------------------------------------------|
A|--------------------------------------------------------------------|
E|--------------------------------------------------------------------|
Basse :
G|--------------------------------------------------------------------|
D|--------------------------------------------------------------------|
A|-8-8-8-8-8-------8-8-8-8-8-------3-3-3-3-3-------3-3-3-3-3----343---|
E|--------------------------------------------------------------------|

Guitare 1 :
e|----------------------------------------------------------------|
B|-13-13-13-14-14--13-13-13-14-14--13-13-13-14-14--13-13-13-14-14-|
G|----------------------------------------------------------------|
Guitare 2 :
e|----------------------------------------------------------------|
B|----------------------------------------------------------------|
G|----------------------------------------------------------------|
D|----------------------------------------------------------------|
A|----------------------------------------------------------------|
E|----------------------------------------------------------------|
Basse :
G|----------------------------------------------------------------|
D|----------------------------------------------------------------|
A|-8-8-8-8-8-------4-4-4-4-4-------3-3-3-3-3-------3-3-3-3-3------|
E|----------------------------------------------------------------|

Guitare 1 :
e|---------------------------------------------------------------------|
B|-13-13-13-14-14--13-13-13-14-14--13-13-13-14-14--13-13-13-14-14------|
G|---------------------------------------------------------------------|
Guitare 2 :
e|---------------------------------------------------------------------|
B|---------------------------------------------------------------------|
G|---------------------------------------------------------------------|
D|---------------------------------------------------------------------|
A|---------------------------------------------------------------------|
E|---------------------------------------------------------------------|
Basse :
G|---------------------------------------------------------------------|
D|---------------------------------------------------------------------|
A|-8-8-8-8-8-------4-4-4-4-4-------3-3-3-3-3-------3-3-3-3-3----343----|
E|---------------------------------------------------------------------|

Guitare 1:
e|-------------------------------------------------------------|
B|-6--6--8--9-----6--8--8-----5--8--8-----5--8--8--------------|
G|-------------6-----------5-----------5-----------------------|
Guitare 2 :
e|-------------------------------------------------------------|
B|-13'13'13'14'14—13'13'13'14'14—13'13'13'14'14—13'13'13'14'14-|
G|-------------------------------------------------------------|
D|-------------------------------------------------------------|
A|-------------------------------------------------------------|
E|-------------------------------------------------------------|
Basse :
G|-------------------------------------------------------------|
D|-------------------------------------------------------------|
A|-------------------------------------------------------------|
E|-------------------------------------------------------------|

Guitare 1 :
e|------------------------------------------------------------------|
B|-6-6-8-9---6-8-8---5-8-8---5-8-8--6-6-8-9---6-8-8---5-8-8---5-8-8-|
G|---------6-------5-------5----------------6-------5-------5-------|
Guitare 2 :
e|------------------------------------------------------------------|
B|------------------------------------------------------------------|
G|------------------------------------------------------------------|
D|------------------------------------------------------------------|
A|------------------------------------------------------------------|
E|------------------------------------------------------------------|
Basse :
G|------------------------------------------------------------------|
D|------------------------------------------------------------------|
A|------------------------------------------------------------------|
E|------------------------------------------------------------------|

Guitare 1 :
e|---------------------------------|
B|-6-6-8-9---6-8-8---5-8-8---5-8-8-|
G|---------6-------5-------5-------|
Guitare 2 :
e|---------------------------------|
B|---------------------------------|
G|---------------------------------|
D|---------------------------------|
A|---------------------------------|
E|---------------------------------|
Basse :
G|---------------------------------|
D|---------------------------------|
A|---------------------------------|
E|---------------------------------|

Guitare 1:
e|----------------------------------------------------------------------|
B|-6-6-8-9---6-8-8---5-8-8---5-8-8--6-6-8-9---6-8-8---5-8-8---5-8-8-----|
G|---------6-------5-------5----------------6-------5-------5-----------|
Guitare 2 :
e|----------------------------------------------------------------------|
B|----------------------------------------------------------------------|
G|-13-12-----------13-12------------13-12-----------13-12---------------|
D|----------------------------------------------------------------------|
A|----------------------------------------------------------------------|
E|----------------------------------------------------------------------|
Basse :
G|----------------------------------------------------------------------|
D|----------------------------------------------------------------------|
A|-88888---44444---33333---33333----88888---44444---33333---33333--343--|
E|----------------------------------------------------------------------|

Guitare 1:
e|----------------------------------------------------------------------|
B|-6-6-8-9---6-8-8---5-8-8---5-8-8--6-6-8-9---6-8-8---5-8-8---5-8-8-----|
G|---------6-------5-------5----------------6-------5-------5-----------|
Guitare 2 :
e|----------------------------------------------------------------------|
B|----------------------------------------------------------------------|
G|-13-12-----------13-12------------13-12-----------13-12---------------|
D|----------------------------------------------------------------------|
A|----------------------------------------------------------------------|
E|----------------------------------------------------------------------|
Basse :
G|----------------------------------------------------------------------|
D|----------------------------------------------------------------------|
A|-88888---44444---33333---33333----88888---44444---33333---33333--343--|
E|----------------------------------------------------------------------|

Guitare 1:
e|----------------------------------------------------------------------|
B|-6-6-8-9---6-8-8---5-8-8---5-8-8--6-6-8-9---6-8-8---5-8-8---5-8-8-----|
G|---------6-------5-------5----------------6-------5-------5-----------|
Guitare 2 :
e|----------------------------------------------------------------------|
B|----------------------------------------------------------------------|
G|-13-12---13-12---13-12---13-12----13-12---13-12---13-12---13-12-------|
D|----------------------------------------------------------------------|
A|----------------------------------------------------------------------|
E|----------------------------------------------------------------------|
Basse :
G|----------------------------------------------------------------------|
D|----------------------------------------------------------------------|
A|-88888---44444---33333---33333----88888---44444---33333---33333--343--|
E|----------------------------------------------------------------------|


Guitare 1:
e|----------------------------------------------------------------------|
B|-6-6-8-9---6-8-8---5-8-8---5-8-8--6-6-8-9---6-8-8---5-8-8---5-8-8-----|
G|---------6-------5-------5----------------6-------5-------5-----------|
Guitare 2 :
e|----------------------------------------------------------------------|
B|----------------------------------------------------------------------|
G|-13-12---13-12---13-12---13-12----13-12---13-12---13-12---13-12-------|
D|----------------------------------------------------------------------|
A|----------------------------------------------------------------------|
E|----------------------------------------------------------------------|
Basse :
G|----------------------------------------------------------------------|
D|----------------------------------------------------------------------|
A|-88888---44444---33333---33333----88888---44444---33333---33333--343--|
E|----------------------------------------------------------------------|

Guitare 1 :
e|--------------------------------------------------------------------|
B|--------------------------------------------------------------------|
G|-55566----55566----55566---55566---55566----55566----55566---55566--|
Guitare 2 :
e|--------------------------------------------------------------------|
B|-6-6-8-9---6-8-8---5-8-8---5-8-8---6-6-8-9---6-8-8---5-8-8---5-8-8--|
G|---------6-------5-------5-----------------6-------5-------5--------|
D|--------------------------------------------------------------------|
A|--------------------------------------------------------------------|
E|--------------------------------------------------------------------|
Basse :
G|--------------------------------------------------------------------|
D|--------------------------------------------------------------------|
A|-8888-----8888-----8888----8888----8888-----8888-----8888----8888---|
E|--------------------------------------------------------------------|

Guitare 1:
e|--------------------------------------|
B|--------------------------------------|
G|-55566----55566---55566---55566-------|
Guitare 2 :
e|--------------------------------------|
B|-6-6-8-9---6-8-8---5-8-8---5-8-8------|
G|---------6-------5-------5------------|
D|--------------------------------------|
A|--------------------------------------|
E|--------------------------------------|
Basse :
G|--------------------------------------|
D|--------------------------------------|
A|-88888----44444---33333---33333--343--|
E|--------------------------------------|

Guitare 1 :
e|----------------------------------|
B|----------------------------------|
G|-55566----55566---55566---55566---|
Guitare 2 :
e|----------------------------------|
B|-6-6-8-9---6-8-8---5-8-8---5-8-8--|
G|---------6-------5-------5--------|
D|----------------------------------|
A|----------------------------------|
E|----------------------------------|
Basse :
G|----------------------------------|
D|----------------------------------|
A|-88888----44444---33333---33333---|
E|----------------------------------|

Guitare 1 :
e|---------------------------------------------|
B|-6-6-8-9---8-6-9-8-6---8-5-8-5-8---8-5-8-5-8-|
G|---------6-----------5-----------5-----------|
Guitare 2 :
e|---------------------------------------------|
B|---------------------------------------------|
G|---------------------------------------------|
D|---------------------------------------------|
A|---------------------------------------------|
E|---------------------------------------------|
Basse :
G|---------------------------------------------|
D|---------------------------------------------|
A|---------------------------------------------|
E|---------------------------------------------|

Guitare 1 :
e|---------------------------------------------|
B|-6-6-8-9---8-6-9-8-6---8-5-8-5-8---8-5-8-5-8-|
G|---------6-----------5-----------5-----------|
Guitare 2 :
e|---------------------------------------------|
B|---------------------------------------------|
G|---------------------------------------------|
D|---------------------------------------------|
A|---------------------------------------------|
E|---------------------------------------------|
Basse :
G|---------------------------------------------|
D|---------------------------------------------|
A|---------------------------------------------|
E|---------------------------------------------|

Guitare 1 :
e|--------------------------------------------------------------------|
B|-6689---86986---85858---85858------6689---86986---85858---85858-----|
G|------6-------5-------5-----------------6-------5-------5-----------|
Guitare 2 :
e|-11-11-11-9-6-6-6-6-8-8-8-8-8-8-8-8-8-8-8-8-8-8-9-9-8-8-8-8-8-8-8-8-|
B|--------------------------------------------------------------------|
G|--------------------------------------------------------------------|
D|--------------------------------------------------------------------|
A|--------------------------------------------------------------------|
E|--------------------------------------------------------------------|
Basse :
G|--------------------------------------------------------------------|
D|--------------------------------------------------------------------|
A|--------------------------------------------------------------------|
E|--------------------------------------------------------------------|

Guitare 1:
e|--------------------------------------------------------------------|
B|-6689---86986-----85858---85858----6-6-8-9---6-8-8---5-8-8---5-8----|
G|------6--------5--------5-----------------6--------5----------------|
Guitare 2 :
e|-8-8-8-8-8-8-9-9--8-8-8-8-8-8-9-9--8-8-8-8-8-8-8-8--8-8-8-8-8-8-8-8-|
B|--------------------------------------------------------------------|
G|--------------------------------------------------------------------|
D|--------------------------------------------------------------------|
A|--------------------------------------------------------------------|
E|--------------------------------------------------------------------|
Basse :
G|-13-10-10-13-6-6-6-13-5-5-13-5-5-13-10-10-13-6-6-6-10-5-5-10-5-5----|
D|--------------------------------------------------------------------|
A|--------------------------------------------------------------------|
E|--------------------------------------------------------------------|

Guitare 1:
e|--------------------------------------------------------------------|
B|-6689---86986-----85858---85858----6-6-8-9---6-8-8---5-8-8---5-8----|
G|------6--------5--------5-----------------6--------5----------------|
Guitare 2:
e|-8-8-8-8-8-8-9-9--8-8-8-8-8-8-9-9—11'11'11'9-6-6-6-6-8-8-8-8-8-8-8--|
B|--------------------------------------------------------------------|
G|--------------------------------------------------------------------|
D|--------------------------------------------------------------------|
A|--------------------------------------------------------------------|
E|--------------------------------------------------------------------|
Basse :
G|-13-10-10-13-6-6-6-13-5-5-13-5-5------------------------------------|
D|--------------------------------------------------------------------|
A|--------------------------------------------------------------------|
E|--------------------------------------------------------------------|

Guitare 1 :
e|-8-9-11-4-----3-----1-----------------1-----4-6-8-8-8-8-8-8-9-9------|
B|--------------------------2---1---2-4--------------------------------|
G|---------------------------------------------------------------------|
Guitare 2 :
e|---------------------------------------------------------------------|
B|---------------------------------------------------------------------|
G|-13-10-10-13-6-6-6-13-5-5-13-5-5--13-10-10-13-6-6-6-10-5-5-10-5-5----|
D|---------------------------------------------------------------------|
A|---------------------------------------------------------------------|
E|---------------------------------------------------------------------|
Basse :
G|---------------------------------------------------------------------|
D|---------------------------------------------------------------------|
A|-88888----44444----33333--33333---88888----44444----33333-33333-343--|
E|---------------------------------------------------------------------|

Guitare 1 :
e|-8-8-8-8-8-8-9-9--8-8-8-8-8-8-9-9--8-8-8-8-8-8-8-8--8-8-8-8-8-8-8-8-|
B|--------------------------------------------------------------------|
G|--------------------------------------------------------------------|
Guitare 2 :
e|--------------------------------------------------------------------|
B|--------------------------------------------------------------------|
G|-13-10-10-13-6-6-6-13-5-5-13-5-5--13-10-10-13-6-6-6-10-5-5-10-5-5---|
D|--------------------------------------------------------------------|
A|--------------------------------------------------------------------|
E|--------------------------------------------------------------------|
Basse :
G|--------------------------------------------------------------------|
D|--------------------------------------------------------------------|
A|-88888----44444----33333-33333---88888----44444---------------------|
E|--------------------------------------------------------------------|

Guitare 1:
e|-11-11-11-9-6-6-6-6-8-8-8-8-8-8-8-8-8-8-8-8-8-8-9-9-8-8-8-8-8-8-8-8-|
B|--------------------------------------------------------------------|
G|--------------------------------------------------------------------|
Guitare 2 :
e|--------------------------------------------------------------------|
B|-6-6-8-9---6-8-8---5-8-8---5-8-8----6-6-8-9---6-8-8---5-8-8---5-8-8-|
G|---------6-------5-------5----------------6-------5-------5---------|
D|--------------------------------------------------------------------|
A|--------------------------------------------------------------------|
E|--------------------------------------------------------------------|
Basse :
G|13'12----13'12----13'12-----6-5-----6-12-----13'12---13'12----6-5-----6-12--|
D|----------------------------------------------------------------------------|
A|----88888----44444-----33333---33333----88888----44444---33333---33333-343--|
E|----------------------------------------------------------------------------|

Guitare 1 :
e|----------------------------------------------------------------------------|
B|-6-6-8-9---6-8-8---5-8-8---5-8-8--6-6-8-9---6-8-8---5-8-8---5-8-8-----------|
G|---------6-------5-------5----------------6-------5-------5-----------------|
Guitare 2 :
e|----8-9-11-4-----3-----1------------------1------4-6-8-8-8-8-8-8-9-9--------|
B|------------------------------2---1---2-4-----------------------------------|
G|----------------------------------------------------------------------------|
D|----------------------------------------------------------------------------|
A|----------------------------------------------------------------------------|
E|----------------------------------------------------------------------------|
Basse :
G|13'12----13'12----13'12-----6-5-----6-12-----13'12---13'12----6-5-----6-12--|
D|----------------------------------------------------------------------------|
A|----88888----44444-----33333---33333----88888----44444---33333---33333-343--|
E|----------------------------------------------------------------------------|

Guitare 1 :
e|----------------------------------------------------------------------------|
B|-6-6-8-9---6-8-8---5-8-8---5-8-8--6-6-8-9---6-8-8---5-8-8---5-8-8-----------|
G|---------6-------5-------5----------------6-------5-------5-----------------|
Guitare 2 :
e|-8-8-8-8-8-8-9-9---8-8-8-8-8-8-9-9---8-8-8-8-8-8-8-8---8-8-8-8-8-8-8-8------|
B|----------------------------------------------------------------------------|
G|----------------------------------------------------------------------------|
D|----------------------------------------------------------------------------|
A|----------------------------------------------------------------------------|
E|----------------------------------------------------------------------------|
Basse :
G|13'12----13'12----13'12-----6-5-----6-12-----13'12---13'12----6-5-----6-12--|
D|----------------------------------------------------------------------------|
A|----88888----44444-----33333---33333----88888----44444---33333---33333-343--|
E|----------------------------------------------------------------------------|

Guitare 1 :
e|-----------------------------------------------------------------------|
B|-----------------------------------------------------------------------|
G|--5-5-5-6-6--------5-5-5-6-6------5-5-5-6-6-------5-5-5-6-6------------|
Guitare 2 :
e|-----------------------------------------------------------------------|
B|-6-6-8-9---6-8-8---5-8-8---5-8-8--6-6-8-9---6-8-8---5-8-8---5-8-8------|
G|---------6-------5-------5----------------6-------5-------5------------|
D|-----------------------------------------------------------------------|
A|-----------------------------------------------------------------------|
E|-----------------------------------------------------------------------|
Basse :
G|-----------13-12-----------13-12-----------6-5----------6-12-----------|
D|-----------------------------------------------------------------------|
A|-8-8-8-8-8-------4-4-4-4-4-------3-3-3-3-3-----3-3-3-3-3---------------|
E|-----------------------------------------------------------------------|

Guitare 1 :
e|-----------------------------------------------------------------------|
B|-----------------------------------------------------------------------|
G|--5-5-5-6-6--------5-5-5-6-6------5-5-5-6-6-------5-5-5-6-6------------|
Guitare 2 :
e|-----------------------------------------------------------------------|
B|-6-6-8-9---6-8-8---5-8-8---5-8-8--6-6-8-9---6-8-8---5-8-8---5-8-8------|
G|---------6-------5-------5----------------6-------5-------5------------|
D|-----------------------------------------------------------------------|
A|-----------------------------------------------------------------------|
E|-----------------------------------------------------------------------|
Basse :
G|-----------13-12-----------13-12-----------6-5----------6-12-----------|
D|-----------------------------------------------------------------------|
A|-8-8-8-8-8-------4-4-4-4-4-------3-3-3-3-3-----3-3-3-3-3-----8-4-3-----|
E|-----------------------------------------------------------------------|

Guitare 1 :
e|-----------------------------------------------------------------------|
B|-----------------------------------------------------------------------|
G|--5-5-5-6-6--------5-5-5-6-6------5-5-5-6-6-------5-5-5-6-6------------|
Guitare 2 :
e|-----------------------------------------------------------------------|
B|-6-6-8-9---6-8-8---5-8-8---5-8-8--6-6-8-9---6-8-8---5-8-8---5-8-8------|
G|---------6-------5-------5----------------6-------5-------5------------|
D|-----------------------------------------------------------------------|
A|-----------------------------------------------------------------------|
E|-----------------------------------------------------------------------|
Basse :
G|-----------13-12-----------13-12-----------6-5----------6-12-----------|
D|-----------------------------------------------------------------------|
A|-8-8-8-8-8-------4-4-4-4-4-------3-3-3-3-3-----3-3-3-3-3---------------|
E|-----------------------------------------------------------------------|

Guitare 1 :
e|-----------------------------------------------------------------------|
B|-----------------------------------------------------------------------|
G|--5-5-5-6-6--------5-5-5-6-6------5-5-5-6-6-------5-5-5-6-6------------|
Guitare 2 :
e|-----------------------------------------------------------------------|
B|-6-6-8-9---6-8-8---5-8-8---5-8-8--6-6-8-9---6-8-8---5-8-8---5-8-8------|
G|---------6-------5-------5----------------6-------5-------5------------|
D|-----------------------------------------------------------------------|
A|-----------------------------------------------------------------------|
E|-----------------------------------------------------------------------|
Basse :
G|-----------13-12-----------13-12-----------6-5----------6-12-----------|
D|-----------------------------------------------------------------------|
A|-8-8-8-8-8-------4-4-4-4-4-------3-3-3-3-3-----3-3-3-3-3-----8-4-3-----|
E|-----------------------------------------------------------------------|

Guitare 1 :
e|-----------------------------------------------------------------------|
B|-----------------------------------------------------------------------|
G|--5-5-5-6-6--------5-5-5-6-6------5-5-5-6-6-------5-5-5-6-6------------|
Guitare 2 :
e|-----------------------------------------------------------------------|
B|-6-6-8-9---6-8-8---5-8-8---5-8-8--6-6-8-9---6-8-8---5-8-8---5-8-8------|
G|---------6-------5-------5----------------6-------5-------5------------|
D|-----------------------------------------------------------------------|
A|-----------------------------------------------------------------------|
E|-----------------------------------------------------------------------|
Basse :
G|-----------13-12-----------13-12-----------6-5----------6-12-----------|
D|-----------------------------------------------------------------------|
A|-8-8-8-8-8-------4-4-4-4-4-------3-3-3-3-3-----3-3-3-3-3---------------|
E|-----------------------------------------------------------------------|

Guitare 1 :
e|-----------------------------------------------------------------------|
B|-----------------------------------------------------------------------|
G|--5-5-5-6-6--------5-5-5-6-6------5-5-5-6-6-------5-5-5-6-6------------|
Guitare 2 :
e|-----------------------------------------------------------------------|
B|-6-6-8-9---6-8-8---5-8-8---5-8-8--6-6-8-9---6-8-8---5-8-8---5-8-8------|
G|---------6-------5-------5----------------6-------5-------5------------|
D|-----------------------------------------------------------------------|
A|-----------------------------------------------------------------------|
E|-----------------------------------------------------------------------|
Basse :
G|-----------13-12-----------13-12-----------6-5----------6-12-----------|
D|-----------------------------------------------------------------------|
A|-8-8-8-8-8-------4-4-4-4-4-------3-3-3-3-3-----3-3-3-3-3-----8-4-3-----|
E|-----------------------------------------------------------------------|

Guitare 1 :
e|----------------------------------------------------------------------------|
B|----------------------------------------------------------------------------|
G|5-5-5-6-65-5-5-6-65-5-5-6-6-5-5-5-6-65-5-5-6-6-5-5-5-6-6-5-5-5-6-6-5-5-5-6-6|
Guitare 2 :
e|----------------------------------------------------------------------------|
B|-6-6-8-9---6-8-8---5-8-8---5-8-8--6-6-8-9--8-6-9-8-6---8-5-8-5-8---8-5-8-5-8|
G|---------6-------5-------5---------------6-----------5-----------5----------|
D|----------------------------------------------------------------------------|
A|----------------------------------------------------------------------------|
E|----------------------------------------------------------------------------|
Basse :
G|----------------------------------------------------------------------------|
D|----------------------------------------------------------------------------|
A|----------------------------------------------------------------------------|
E|----------------------------------------------------------------------------|

Guitare 1 :
e|---------------------------------------------|
B|---------------------------------------------|
G|---------------------------------------------|
Guitare 2 :
e|---------------------------------------------|
B|-6-6-8-9---8-6-9-8-6---8-5-8-5-8---8-5-8-5-8-|
G|---------6-----------5-----------5-----------|
D|---------------------------------------------|
A|---------------------------------------------|
E|---------------------------------------------|
Basse :
G|---------------------------------------------|
D|---------------------------------------------|
A|---------------------------------------------|
E|---------------------------------------------|

Guitare 1 :
e|---------------------------------------------|
B|---------------------------------------------|
G|---------------------------------------------|
Guitare 2 :
e|---------------------------------------------|
B|-6-6-8-9---8-6-9-8-6---8-5-8-5-8---8-5-8-5-8-|
G|---------6-----------5-----------5-----------|
D|---------------------------------------------|
A|---------------------------------------------|
E|---------------------------------------------|
Basse :
G|---------------------------------------------|
D|---------------------------------------------|
A|---------------------------------------------|
E|---------------------------------------------|

Guitare 1 :
e|-----------------------------------------------------------|
B|-----------------------------------------------------------|
G|-----------------------------------------------------------|
Guitare 2 :
e|-----------------------------------------------------------|
B|---6-8-9---8-6-9-8-6---8-5-8-5-8---8-5-8-5-8---8-5-8-5-8---|
G|-6-------6-----------5-----------5-----------5-------------|
D|-----------------------------------------------------------|
A|-----------------------------------------------------------|
E|-----------------------------------------------------------|
Basse :
G|-----------------------------------------------------------|
D|-----------------------------------------------------------|
A|-----------------------------------------------------------|
E|-----------------------------------------------------------|
     
Добавлено: 15.10.2013
Вам также может быть интересно:
Другие материалы по этой песне:
  • Аккорды и текст

Страница создана 15.10.2013
http://primanota.ru/pitch/pitch-and-hold-maillot-jaune-chords.htm
Привет, Гость.
Предлагаем пройти революционный курс по гитаре.
Подарок от PrimaNota.Ru, забирай!