PrimaNota.ru - самый крупный в мире бесплатный архив песенных текстов, аккордов, табулатур и нот


Pirates From Hell - The Seventh Seal - аккорды и текст, таба, видео

Регистрация Запомнить меня
Войти через:  Facebook Google Twitter Vk Yandex Mail.ru

Pirates From Hell - The Seventh Seal - аккорды и текст, таба, видео

Печатать
Просмотров: 84
The Seventh Seal
Pirates From Hell
		   t. See http://www..net/faq/ for more information.                     #
#-----------------------------------------------------------------------------#


band: PIRATES FROM HELL
song: "The Seventh Seal"
from: 'The Calls Of Beast'99 album
music by Marck Pithan
lyric by Marck Pithan
tabbed by Guilherme Soares

Well, here goes the best song of the brazilian band PIRATES FROM HELL.
Some boys, from Porto Alegre, Brazil, asked me to post this tab.
It's not so easy to play, but if you pratice for awile, you'll make it.

Tuning guitar: low D: e,B,G,d,A,D

INTRO: (slow)
  |----0-1-1h3-1-0-1h0------0-1-1h3-1-0-1-3/5--|----0-1-1h3-1-0------|E
  |---3--------------------3-------------------|---3-----------3-3/5-|B
  |--2--------------------2--------------------|--2-------------2----|G
  |-0--------------------0---------------------|-0-------------------|D
  cont.
  |----0-1-1h3-1-0-1-3-3/5-3-1~-|----0-1-1h3-1-0-|e
  |---3-------------------------|---3------------|B
  |--2--------------------------|--2-------------|G
  |-0---------------------------|-0--------------|d
      3                             4

RIFF1: (slow)
  |7--------7---------7--------9-------9--------9-------10-------10--D
  |5--------5---------5--------7-------7--------7--------8--------8--A
  |---0--0-----0-0-0-----0--0----0--0----0-0-0-----0--0-----0--0-----D

  cont.-------10---------9--------10---------8------|D
       --------8---------7---------8---------6------|A
       -0-0-0-----0-0-0-----0-0-0-----0-0-0-----0-0-|D
  the bass plays just like it in the A and D strings.

RIFF2: (fast) verses:
  Play this sequence very fast:
  D F E C C(ABC)D
  C(ABC)D:
    C         C(A B C)D
  |-5---------5-------7-|d
  |-3---------3-0-2-3-5-|A
  |---0-0-0-0-----------|D

RIFF3: (fast) prechorus:
  |-3-------3-------3-------5-------5-------5-------2-------2-------d
  |-1-1-1-1-1-1-1-1-1-1-1-1-3-3-3-3-3-3-3-3-3-3-3-3-0-0-0-0-0-0-0-0-A
  |-----------------------------------------------------------------D
  cont. -2-------|-3--------3---|-7------7------|D
        -0-0-0-0-|-3--------3---|-5--5-5-5--5-5-|A
        ---------|-3--3--3--3---|-0-------------|D
                 1st time        2nd time

RIFF4: (fast) chorus
  |-7------7------7---8---3------3--5-|-----5-|-2---|D
  |-5--5-5-5--5-5-5---5---1--1-1-1--3-|-3-3-3-|-0---|A
                                       1sttime  2ndtime

RIFF5: instrumental breaks:
  |-3-2-0---5---5---5----3-2-0---5---5---5---|A
  |-------0---0---0---0--------0---0---0---0-|D
   A solo is played with this riff.

RIFF6A: play fast
  |--3-2-0-2-3-2-0-2-3-2-0-2-3-2-0-2-|G
  |-0-0-0-0-0-0-0-0-0-0-0-0-0-0-0-0--|D
  6B:
  |--3-2-0-2-3-2-0-2-3-2-0-2-3-2-0-2-|D
  |-0-0-0-0-0-0-0-0-0-0-0-0-0-0-0-0--|A

RIFF7A: (slow)
  |-------------0-|-------------2-|---------2-----|G
  |-----0---0-----|-----0---0-----|-----0-----0---|D
  |---0---0---0---|---0---0---0---|---0---0-----0-|A
  |-0-------------|-0-------------|-0-------------|D
  B: (slow)
  |-------0-----0-|-------2-----2-|-------2-2-----|G
  |-----0---0-----|-----0---0-----|-----0-----0---|
  |---0-------0---|---0-------0---|---0---------0-|
  |-0-------------|-0-------------|-0-------------|D
  play in this order for both parts: 1,2,1,3...


The Main guitar solo is played on Dm... For rhythm play riffs 4 and 6A,B

I think that is it... i hope you enjoy this song.

PIRATES FROM HELL on 'The Calls Of Beast' album:
Aless Thunderlow: lead vocals
Vinny Blacksoul: rhythm guitars
Marck Pithan: lead guitars
Phill Amaro: bass guitar, and keyboards
Duck Russ: drums

To the PIRATES fans in Brazil:
stay turned: The tour dates are coming very soon, as the new album too...
Says the band: "We gonna try to get the whole country in this year... See ya"     
Добавлено: 04.10.2013
Другие материалы по этой песне:
  • Аккорды и текст

Страница создана 27.05.2012
http://primanota.ru/pirates-from-hell/the-seventh-seal-chords.htm
Привет, Гость.
Предлагаем пройти революционный курс по гитаре.
Подарок от PrimaNota.Ru, забирай!