PrimaNota.ru - самый крупный в мире бесплатный архив песенных текстов, аккордов, табулатур и нот


Pirates From Hell - Hellrider - аккорды и текст, видео

Регистрация Запомнить меня
Войти через:  Facebook Google Twitter Vk Yandex Mail.ru

Pirates From Hell - Hellrider - аккорды и текст, видео

Печатать
Просмотров: 76
Hellrider
Pirates From Hell
PIRATES FROM HELL
"Hellrider"
'Through The Hell's Gate'
music & lyric written by Marck Pithan
tab by Guiso Soares (ex-Pirates From Hell)


Hi guys... I've tabbed this one 'cos I used to play
with the band when I played with them.

I don't know if there's something diferent since I
played this one, but I posted the way that I know.
The ones who asked me this song must check it out with
the record version.


Sixth string tuned down to D: e,B,G,d,A,D (Drop D)

INTRO / CHORUS (very fast)
  Dm                Dm        Dm G Dm Dm       F5   
             Em
|------------------|-----------|----------------------|-------------------|e
|------------------|-----------|----------------------|-------------------|B
|------------------|-----------|----------------------|-----5-------------|G
|------------------|-000000000-|-7-5-7-00000000--3--3-|-5-7-5-3-0-0-2-2-2-|d
|-5555555555555555-|-000000000-|-5-5-5-00000000--3--3-|-5-5-5-3-0-0-2-2-2-|A
|-0000000000000000-|-000000000-|-------00000000--3--3-|-------3-0-0-2-2-2-|D
 intro only          main riff       ending 1         
    ending 2
    
VERSES:
  C5    C5
|----------|e
|----------|B
|----------|G
|-5-----5--|d
|-3-----3--|A
|-5-----5--|D

play main riff once, then:

 Eb5   Eb5
|----------|e
|----------|B
|----------|G
|-1-----1--|d
|-1-----1--|E
|-1-----1--|D

PRE-CHORUS:
 Dm   C5  Eb5   F5 
|------------------|e
|------------------|B
|------------------|G
|-7----5----1----3-|d
|-5----3----1----3-|A
|-0----5----1----3-|D


BRIDGE (after chorus):
   Dm        
|----------|----------------------------|---------------------------|e
|----------|----------------------------|---------------------------|B
|----------|----------------------------|---------------------------|G
|-00000000-|-7-5-7/--22222222--3-3-5-5--|-5-7-5-3-00000000--2-2-1-2-|d
|-00000000-|-7-5-7/--22222222--3-3-5-5--|-5-7-5-3-00000000--2-2-1-2-|A
|-00000000-|-7-5-7/--00000000--3-3-5-5--|-5-7-5-3-00000000--2-2-1-2-|D
  main        ending 1                    ending 2

That's enough...
Bay you!


     
Добавлено: 25.07.2013
Другие материалы по этой песне:
  • Аккорды и текст

Страница создана 25.07.2013
http://primanota.ru/pirates-from-hell/hellrider-chords.htm
Привет, Гость.
Предлагаем пройти революционный курс по гитаре.
Подарок от PrimaNota.Ru, забирай!