PrimaNota.ru - самый крупный в мире бесплатный архив песенных текстов, аккордов, табулатур и нот


Pips Chips And Videoclips - Malena - таба, видео

Регистрация Запомнить меня
Войти через:  Facebook Google Twitter Vk Yandex Mail.ru

Pips Chips And Videoclips - Malena - таба, видео

Печатать
Просмотров: 60
-------------------------------------------------------------------------------
                           MALENA - Pips, Chips & Videoclips
-------------------------------------------------------------------------------
Tabbed by: Pacovcina 
E-mail: noa.galic4@gmail.com

A nice and easy song to play, tabbing it just because every tab I found was pretty inaccurate.

Tuning: EADGBe

Intro-Guitar 1
e|------------------0---------------------------0----------------------------|
B|-----------3---------3---------------------3----3---3----------------------|
G|---------0--------------0---------------0---------0------------------------| x2
D|-------0-------------------------------------------------------------------|
A|-----------------------------------3---------------------------------------|
E|----3----------------------------------------------------------------------|

Intro-Guitar 2

       G             C       D          G           C       D    G
e|-----3-------------------------------(3)--------------------------------------|
B|-----3-----3h5h3---1---0--------------3---3h5h3---1---0-----------------------|
G|-----0---------------------2---------(0)------------------2-------------------|
D|-----0-------------------------------(0)--------------------------------------|
A|-----2-------------------------------(2)--------------------------------------|
E|-----3--------------------------3----(3)-----------------------3--------------|

Verse 1
e|------------------0---------------------------0----------------------------|
B|-----------3---------3---------------------3----3---3----------------------|
G|---------0--------------0---------------0---------0------------------------|
D|-------0-------------------------------------------------------------------|
A|-----------------------------------3---------------------------------------|
E|----3----------------------------------------------------------------------|

The Refrain
              
       G                              C                      D
e|------------------0---------------------------0----------------------------|
B|-----------3---------3---------------------3----3---3----------------------|
G|---------0--------------0---------------0---------0------------------------|
D|-------0-------------------------------------------------------------------|
A|-----------------------------------3---------------------------------------|
E|----3----------------------------------------------------------------------|
    "Malena...." part

Instrumental
     Am            C             G  
e|---0---0---------0---0---------3---3---3---3--------------------------------------|
B|---1---1---------1---1---------3---3---3---3--------------------------------------|
G|---2---2---------0---0---------0---0---0---0--------------------------------------|
D|---2---2---------2---2---------0---0---0---0--------------------------------------|
A|---0---0---------3---3---------2---2---2---2--------------------------------------|
E|-------------------------------3---3---3---3--------------------------------------|



And that's pretty much the whole song. I excuse myself for bad formatting, this is my first tab.
The reason why I made this tab because this song is IMO the best Pips, Chips & Videoclips song, but sadly
every tab I saw was either only chords or an inaccurate tab.
************************************

| /   slide up
| \   slide down
| h   hammer-on
| p   pull-off
| ~   vibrato
| +   harmonic
| x   Mute note
| b   Bend
| pb  Pre-bend
| br  Bend release
| pbr Pre-bend release
| brb Bend release bend

************************************
Добавлено: 31.12.2015
Другие материалы по этой песне:
  • Аккорды и текст

Страница создана 31.12.2015
http://primanota.ru/pips-chips-and-videoclips/malena-chords.htm
Привет, Гость.
Предлагаем пройти революционный курс по гитаре.
Подарок от PrimaNota.Ru, забирай!