PrimaNota.ru - самый крупный в мире бесплатный архив песенных текстов, аккордов, табулатур и нот


Pino Forastiere - For You - таба, видео

Регистрация Запомнить меня
Войти через:  Facebook Google Twitter Vk Yandex Mail.ru

Pino Forastiere - For You - таба, видео

Печатать
Просмотров: 99
                                     PINO FORASTIERE

                                         FOR YOU


Tabbed by :Toine

Watch the video of him playing it if you are confused about certain parts,
 it's the video i used to tab this song: http://www.youtube.com/watch?v=Dc6zr5NGIWg

Try to play it with attention to the main melody!
Tuning (high to low) : EBED#G#C#

E |----------------------------|----------------------------------------------|
B |----------------------------|----------------------------------------------|
E |-----------------9-----9----|-----------11-------------11----------11------|
D#|--------------10----10------|--10s12-------------12----------12------------|
G#|--<12>----------------------|----------------------------------------------|
C#|----------------------------|----------------------------------------------|


-------|----------------------------------------------------------------|
-------|----------------------------------------------------------------|
-------|--------------9-----------9-----------9--------------------7----|
-------|--------------------10----------10----------10s---8-------------|
--<12>-|----------------------------------------------------------------|
-------|--<12>----------------------------------------------------------|


----------------------------------------------------------------|
----------------------------------------------------------------|
--------------------7-----------7-----------7-----------7-------|
-----------8--------------8-----------8-----------8s------------|
----------------------------------------------------------------|
----------------------------------------------------------------|


----------------------------------|----------------------------------|
----------------------------------|----------------------------------|
-----4-----4-----7-----7-----4----|-----4-----2-----2-----4-----4----|
--5-----5s----8-----8s----5-------|--5s----3-----3s----5-----5-------|
----------------------------------|----------------------------------|
----------------------------------|----------------------------------|


----------------------------------------------------|-------|
----------------------------------------------------|-------|
--------------0-----------------------0-------------|-------|
--5s-1--------------------1-------------------------|-------|
----------------------------------------------------|-------|
----------------------------------------------------|-------|


--------------------3-------------------------------|--2----|
--------------1-------------------------------------|--0----|
-----------1----------------------------------------|--0----|
--------0-------------------------------------------|--0----|
--0-------------------------------------------------|--0----|
--------------------------------------------0-------|-------|


--------------------3-------------------------------|--2----|
--------------1-------------------------------------|--0----|
-----------1----------------------------------------|--0----|
--------0-------------------------------------------|--0----|
--0-------------------------------------------------|--0----|
--------------------------------------------0-------|-------|

place right hand finger over the 7th fret and pull off from the 2, creating the harmonic

-(2)p7-----6----------------|----------------------------|
--------------------9-------|--7-------------------------|
----------------------------|-----------7----------------|
----------------------------|--------7-----------7--0----|
----------------------------|-----7-----------7----------|
----------------------------|--7-----------7-------------|


--7--------6----------------|-----------9-------------|
--------0--------------9----|--7--------7--------2----|
--------0-----------0-------|--7--------7-------------|
-----0-----------0----------|--------7----------------|
--------0-------------------|-----7-----------x-------|
--0-----------0-------------|--7----------------------|


----------------------------------------------------|
--4-----------------------------------------2--0----|
--------0-----2-----4-----------------0-------------|
--1-----------------------------0-------------------|
--------------------------0-------------------------|
----------------------------------------------------|


-----------2--4--------2----|----------------------------|
--4-----4--------------2----|-----------------2----------|
--------2--------2-----2----|-----------4-----------2----|
-----0----------------------|--------2-----------2-------|
--3-----------------2-------|-----2----------------------|
--------------2-------------|--2-----------2-------------|


--------------4--------2----|--------0-------------------|
----------------------------|-----------4-----------0----|
-----------2--------0-------|-----0--------------0-------|
--------2--------0----------|-----------------0----------|
-----2----------------------|----------------------------|
--2-----------0-------------|--0-----------0-------------|


--------------------------4-----------------2-------|
--------------------------------------0-------------|
--------------0--------------------0----------------|
--------3-----------0-----------0-------------------|
-----3----------------------------------------------|
--3-----------------------0-------------------------|


--------0-------------------|-------------7---------6----|
-----------4-----------0----|----------------------------|
--------------------0-------|--------<12>--------0-------|
-----3-----------0----------|-----------------0----------|
----------------------------|-----<7>------0-------------|
--3-----------0-------------|-<5>------------------------|


----------------------------|--------------7--------6----|
-----------9--7-------------|--------------5-------------|
--------0--------------7----|--------7-----7-------------|
-----0--------------7-------|-----------0--5-------------|
-----------------7----------|-----7--------5-----x-------|
--------------7-------------|--7-----------------x--0----|


----------------------------------------------------|
--------------------9s----7-----------------7-------|
--------------7--------------------------7--9h-7----|
--------5-----------------------------7-------------|
--5-----------------------------7-------------------|
--------------------------7-------------------------|


--9-----9-------------------------------------------|
--------------------0--2--4-------------------------|
--9h-7h-9--------7--------------0-----2-----4-------|
--------------7-----------1-------------------------|
----------------------------------------------------|
----------------------------------------------------|


--------------------------------------------2-------|
--------------------2--0--4-----------4-------------|
--------------0-----------------------2-------------|
--------0-----------------------0-------------------|
--0-----------------------3-------------------------|
----------------------------------------------------|


--4--------2----------------|----------------------------|
-----------2----------------|-----2----------------------|
-----2-----2-----------4----|-----------2--------2-------|
--------------------2-------|--------2--------------0----|
--------2--------2----------|-----------------2----------|
--2-----------2-------------|--2-----------2-------------|


-----------2----------------|-----------5----------------|
--1--------------------5s---|--3--------3----------------|
--3-----3-----------3-------|--3--------3--------3--0----|
-----1-----------1----------|--------3--3-----3----------|
--1-----------1-------------|-----3-----3----------------|
----------------------------|--3--------3--x-------------|


-----------2----------------|-----------5----------------|
--1--------------------5s---|--3--------3----------------|
--3--x----------------------|--3--------3--------3--0----|
--1-----x-----------1-------|--------3--3-----3----------|
--1-----x--------1----------|-----3----------------------|
--1-----x-----1-------------|--3-----------x-------------|


--5--------7----------|-----12---------------------|--9--7----------|
--5--------7----------|-----10---------------------|--7-----11-9----|
--5-----5--7-----7----|-----10---------------------|--7-------------|
--5--5-----7--7-------|----------------------------|--7-------------|
--5--------7----------|----------------------------|--7-------------|
--5--------7----------|----------------------------|-----------9----|


For this part you play the 9 with a bar chord, then place your righthand on the 7th fret 
and pull off from the 9.
Then the 7s will ring, then place your lefthand over the 12th fret, pull off from the 
7th fret and the harmonics will sound.
Watch the video if you have trouble with this.

----------------|--12>--|---------------------------x----------------|
--------7-------|--12>--|-------------<12>----------x----------------|
-----11-7-------|--12>--|--------<7>--<12>---------------------------|
-----9h-7-------|--12>--|--------<7>---------------------------------|
----------------|--12>--|-----5--------------------------------------|
--------7-------|--12>--|--5--------------------0------h3----3-------|


-------------------------x----------------|
--------<7>--------------x----------------|
--------<7>-------------------------------|
-----------<12>---------------------------|
-----5-----<12>---------------------------|
--5--------------0----------h3----3-------|


---------------------------x----------------|
-------------<12>----------x----------------|
--------<7>--<12>---------------------------|
--------<7>---------------------------------|
-----5--------------------------------------|
--5-----------------0---------h3----3-------|


-------------------------x----------------|
--------<7>--------------x----------------|
--------<7>-------------------------------|
-----------<12>---------------------------|
-----5-----<12>---------------------------|
--5--------------0----------h3----3-------|

           TH    TH                                 TH    TH

-----------2>----1>----------1--1--0----|-----------2>----0>-------x-------|
-----------2>----1>----------1--1--0----|-----------2>----0>-------x-------|
-----------2>----1>----------1--1--0----|-----------2>----0>---------------|
-----2--2--2>----1>----------1--1--0----|--------2--2>----1>---------------|
-----------2>----1>---------------------|-----2-----2>----1>----x----------|
--2--------------1>---------------------|--2--------------1>----x----------|


---------------------------x----------------|
-------------<12>----------x----------------|
--------<7>--<12>---------------------------|
--------<7>---------------------------------|
-----5--------------------------------------|
--5-----------------0---------h3----3-------|


-------------------------x----------------|
--------<7>--------------x----------------|
--------<7>-------------------------------|
-----------<12>---------------------------|
-----5-----<12>---------------------------|
--5--------------0----------h3----3-------|


---------------------------x----------------|
-------------<12>----------x----------------|
--------<7>--<12>---------------------------|
--------<7>---------------------------------|
-----5--------------------------------------|
--5-----------------0---------h3----3-------|


-------------------------x----------------|
--------<7>--------------x----------------|
--------<7>-------------------------------|
-----------<12>---------------------------|
-----5-----<12>---------------------------|
--5--------------0----------h3----3-------|

           TH    TH

-----------2>----1>----------1--1--0----|
-----------2>----1>----------1--1--0----|
-----------2>----1>----------1--1--0----|
-----2--2--2>----1>----------1--1--0----|
-----------2>----1>---------------------|
--2--------------1>---------------------|

           TH    TH

-----------2>----0>---------------------|
-----------2>----0>---------------------|
-----------2>----0>-------------0-------|
--------2--2>----1>---------------------|
-----2-----2>----1>----------1----------|
--2--------------1>-------1-------------|


--------------------0-------------------|-----------------7----|
--------0-------------------------------|--------------0-------|
----------------------------------------|-----------0----------|
----------------------------------------|-----5--7-------------|
-----1-----------1--------5s------------|--5-------------------|
--1-----------1-----------5s----5-------|----------------------|


-----------6----------------|----------------------------|
-----------------------9s---|--7-------------------------|
--------0-----------0-------|-----------7--------7-------|
-----0-----------0----------|--------7--------------0----|
--0-------------------------|-----7-----------7----------|
----------------------------|--7-----------7-------------|


--7-----------------6-------------------------------|
--5--------------------------------------9-----7----|
--7-----------------------------------7-------------|
--5-----------------------------5-------------------|
--5-----------x-----------5-------------------------|
--------------x-----0-------------------------------|


----------------------------------------------------|
--------------------4--------------------0--2s-4----|
----------------------------------------------------|
--------------5-----------------------5-------------|
--------3-----------------------3-------------------|
--3-----------------------3-------------------------|


--------4--2----------------|--------4--2-----------7----|
--4--------------0-----4----|-----------------0----------|
--------------2-------------|--------------2-----0-------|
-----5-----0--------0-------|-----5-----0----------------|
--5-------------------------|--5-------------------------|
----------------------------|----------------------------|

Use your 2nd finger to barre the 4th fret


-----------5-----------3----|-----------0----------------|
----------------------------|-----------0----------------|
----------------------------|-----------0-----------0----|
--------4-----------4-------|--------4--4--------0-------|
-----4-----------4----------|-----4-----4-----4----------|
--4-----------4-------------|--4--------4--4-------------|


--4--------2--------0-------|----------------------------|
-----------------------4----|----------------------------|
----------------------------|-----------0-----------0----|
--------0-------------------|--------0-----------3-------|
-----0-----------3----------|-----0-----------3----------|
--0-----------3-------------|--0-----------3-------------|


--4--------2--------0-------|-----------------0----------|
-----------------------4----|-----------0-----------4----|
----------------------------|--------0-------------------|
--------0-------------------|-----3--------------3-------|
-----0-----------3----------|--1-----------1-------------|
--0-----------3-------------|----------------------------|


-----------------0----------|-----------------0----------|
-----------0-----------4----|-----------0-----------4----|
--------0-------------------|--------0-------------------|
-----3--------------3-------|-----3--------------3-------|
--1-----------1-------------|--0-----------0-------------|
----------------------------|----------------------------|


-----------------0----------|-----------------0----------|
-----------0-----------4----|-----------0-----------4----|
--------0-------------------|--------0-------------------|
-----3--------------3-------|-----3--------------3-------|
--0-----------0-------------|----------------------------|
----------------------------|--0-----------0-------------|


-----------------0----------|-----------------0----------|
-----------0-----------4----|-----------0-----------4----|
--------0-------------------|--------0-------------------|
-----3--------------3-------|-----3--------------3-------|
----------------------------|--1-----------1-------------|
--0-----------0-------------|----------------------------|


-----------------0-------|----------------|----------------------------|---11--|
-----------0-------------|--12------------|----------------------------|--<12>-|
--------0----------------|----------------|--------------<12>----------|-------|
-----3-------------------|----------------|----------------------------|-------|
--1-----------1-----x/---|----------------|-----<7>--------------------|-------|
--------------------x/---|-----------<5>--|----------------------------|-------|


PLEASE RATE MY TAB! i would appreciate it :)


Legend

x - dead note
h - hammer on
p - pull off
s - slide
 - Harmonic
TH - Tap Harmonic (hit the strings 1 octave higher then written (eg: 2 = 14)
Добавлено: 01.12.2013
Вам также может быть интересно:
Другие материалы по этой песне:

Страница создана 29.08.2013
http://primanota.ru/pino-forastiere/for-you-chords.htm
Привет, Гость.
Предлагаем пройти революционный курс по гитаре.
Подарок от PrimaNota.Ru, забирай!