PrimaNota.ru - самый крупный в мире бесплатный архив песенных текстов, аккордов, табулатур и нот


Pino Daniele - Un Angelo Vero - таба, видео

Регистрация Запомнить меня
Войти через:  Facebook Google Twitter Vk Yandex Mail.ru

Pino Daniele - Un Angelo Vero - таба, видео

Печатать
Просмотров: 146
Questa è la Tab di una canzone di Pino Daniele dell'album " Che Dio ti
benedica"

spero che questa mia versione vi piaccia. Qualunque suggerimento che la
migliori è ben accetto.

Un angelo vero  (Pino Daniele 1993)

|-5-----5-4-----4-4-----4-2-----2---|
|-----3-------3-------2-------2-----|
|---4-------4-------3-------3-------|
|-----------------------------------|
|-----------------------------------|
|-0-----0-0-----0-0-----0-0-----0---|

|-3-----3-2-----2-0-----------------|
|-----1-------1---0------0---0---5--|
|---0-------2-------1--2---3---4----|
|-----------------------------------|
|-----------------------------------|
|-0-----0-0-----0-0----2---3---4----|

Ripete fino alla fine della strofa

|-----------------------------------|
|-2-----2-2-----2-2-----2-------2---|
|-----2-------2-------2---0---0-----|
|---2-------3-------4-------2-------|
|-0-------0-------0-------0---------|
|-----------------------------------|

|-2-----2-2-----2-------2-------2---|
|-----3-------3---0---0---1---1-----|
|---2-------3-------2-------2-------|
|-0-------0-------0-------0---------|
|-----------------------------------|
|-----------------------------------|

|-----------------------------------|
|-5-----5-5-----5-3-----3-------3---|
|-----4-------4-------2-------2-----|
|---6-------5-------4-------3-------|
|-4-------3-------2-------1---------|
|-----------------------------------|

|-------0---------------------------|
|-0-----0---0---0-------5--5----5---|
|-1---1---2---3---4---4----4----4---|
|---2---------------2------2----2---|
|-----------------------------------|
|-0-------2---3---4--------4----4---|

|----------------------------------|
|-2-----2-2-----2-2-----2-2--4--2--|
|-----2-------2-------2---2--4--2--|
|---2-------2-------2-----2--4--2--|
|----------------------------------|
|-0-------0-------0-------0--0--0--|

|-------0-------0-------0-------0--|
|-2-------2-------2-------2--------|
|-----2-------2-------2-------2----|
|---2-------2-------2-------2------|
|----------------------------------|
|-0-----0-0-----0-0-----0-0--------|

|-------4-------4-------2-------2--|
|-5---5---5---5---2-------2--------|
|---4-------4---------1-------1----|
|-------------------2-------2------|
|-4-------4-------0-------0--------|
|----------------------------------|

|----------------------------------|
|-4-----4-2-----2-4-----4----------|
|-----4-------2-------2------------|
|---4-------2-------4--------------|
|-----------------2----------------|
|-4-------2------------------------|

Seduto in mezzo al traffico ho visto un angelo vero
Volava sopra il Vomero, il cielo era sereno
Da S.Martino vedi tutta quanta la città'
Col mondo in tasca e senza dire una parola
Io ti ricordo ancora

Con gli occhi in mezzo al panico nasconde una pistola
Gennaro e' in fondo al vicolo vive con un nodo in gola
Città che non mantiene mai le sue promesse
Città fatta di inciuci e di faotografie
Di Maradona e di Sofia

Ma e' la mia città fra l'inferno e il cielo
Dimmi se sei tu quell'angelo vero
Non andare via, via.

E' il tempo della musica ti aspetto giu' al portone
Ma il Lunedì di Pasqua al porto c'è sempre confusione
A scuola non mantiene mai le sue promesse
Ed io mi perdo ancora fra le mie pazzie e le tue bugie
Ma e' la mia città fra l'inferno e il cielo
Dimmi se sei tu quell'angelo vero
Non andare via, via.
Ciao a tutti!!!!

                              Luca: rluc@freemail.it
--------
N.B.spero per fabfab che vada bene così




     
Добавлено: 05.12.2013
Другие материалы по этой песне:
  • Аккорды и текст

Страница создана 05.12.2013
http://primanota.ru/pino-daniele/un-angelo-vero-chords.htm
Привет, Гость.
Предлагаем пройти революционный курс по гитаре.
Подарок от PrimaNota.Ru, забирай!