PrimaNota.ru - самый крупный в мире бесплатный архив песенных текстов, аккордов, табулатур и нот


Pino Daniele - Sara - аккорды и текст, таба, видео

Регистрация Запомнить меня
Войти через:  Facebook Google Twitter Vk Yandex Mail.ru

Pino Daniele - Sara - аккорды и текст, таба, видео

Печатать
Просмотров: 211
Уроки эстрадного вокала в Санкт-Петербурге
Sara
Pino Daniele
		   Gli accordi non li ho trovati io, ma suonano bene (magari si deve solo
controllare il fa7+)
Le tablature invece le ho scritte io e non sono sicuro al 100% della  parte
veloce,ma credo che il resto vada bene
Accetto commenti e/o correzioni.
(Courier new)


SARA, Pino Daniele
album MEDINA  2001
Accordi     :         niclint@libero.it
Tablature   :B[Ar]T   bart80@ciaoweb.it




E----------------------5-5-5---6-5-3-(3)------
B--3-5-6----5-6-5-3---------------------------
G-----------(Veloce)--------------------------
D---------------------------------------------
A---------------------------------------------
E---------------------------------------------


E--10-12-13----12-13-12-10-----8-8-8--6-5--3--
B---------------(Veloce)----------------------
G---------------------------------------------
D---------------------------------------------
A---------------------------------------------
E---------------------------------------------


E----------------------5-5-5---6-5-3---1-0----
B--3-5-6----5-6-5-3------------------------3--
G-----------(Veloce)--------------------------
D---------------------------------------------
A---------------------------------------------
E---------------------------------------------


E---------------------------------------------
B-1-------------------------------------------
G---3-2-0-------------------------------------
D-----------3-2-0----0------------------------
A------------------3--------------------------
E---------------------------------------------

SOPRA puoi suonarci  REm SIb FA7+ DO



REm     SIb   FA7+        DO
Sara        non piangere

REm        SIb
 Tienimi chiuso

               FA7+        DO
 dentro questa stanza

REm               SIb
Rompi i tuoi giochi contro

   FA7+                DO
 l'arroganza del mondo

 stop
Che è pieno di

 REm          SIb                 FA7+  DO
 Cose inutili da fare

REm                 SIb           FA7+DO

Cose inutili   da dire

REm
 Quante cose inutili

SIb                      FA7+ DO
abbiamo nella testa

REm SIb                 FA7+DO
 ma il tuo sorriso resta

STOP



REm  SIb FA7+ DO

 In the middle of the night           CHITARRA

 In the middle of the night

 In the middle of the night



COME SOPRA


Sara devi crescere
 imparerai a guardare il cielo
 Ad inseguire un sogno vero
 nelle cose della vita
 Cose inutili da fare
 Cose inutili da dire
 Quante cose inutili
 che abbiamo nella testa
 Ma il tuo sorriso resta
 In the middle of the night
 In the middle of the night





LAm       SIb
 Sei così fragile

LAm        SIb
Sei così  fragile




REM SIb FA7+DO


Sara sarà.. Sara sarà,
 sarà sarà..
 Sara sarà.. Sara sarà,
 sarà sarà sarà..
 Cose inutili da fare
 Cose inutili da dire
 Quante cose inutili
 che abbiamo nella testa
 Ma il tuo sorriso resta
 In the middle of the night
 In the middle of the night
 In the middle of the night
 Sara sarà.. Sara sarà,
 sarà.. sarà
 Sara sarà.. Sara sarà,
 sarà sarà sarà
 Cose inutili da fare
 Cose inutili da dire
 Quante cose inutili
 abbiamo nella testa
 Ma il tuo sorriso resta
 In the middle of the night
 In the middle of the night
 In the middle of the night


--
***********************************
                  @@  B[Ar]T @@

  E-MAIL       guitartabs@supereva.it
  SITE:            http://guitartabs.supereva.it
  #ICQ :          60934436
***********************************

     
Добавлено: 03.10.2013
Другие материалы по этой песне:
  • Аккорды и текст

Страница создана 08.05.2012
http://primanota.ru/pino-daniele/sara-chords.htm
Привет, Гость.
Предлагаем пройти революционный курс по гитаре.
Подарок от PrimaNota.Ru, забирай!