PrimaNota.ru - самый крупный в мире бесплатный архив песенных текстов, аккордов, табулатур и нот


Pino Daniele - E Po' Che Fa' - аккорды и текст, видео

Регистрация Запомнить меня
Войти через:  Facebook Google Twitter Vk Yandex Mail.ru

Pino Daniele - E Po' Che Fa' - аккорды и текст, видео

Печатать
Просмотров: 85
E Po' Che Fa'
Pino Daniele
		   ========
Da: "Lucariello"  rluc@freemail.it>
Data: giovedì, 5. aprile 2001 22:32
--------

E po' che fa'
Pino Daniele
Album: Bella 'Mbriana

INTRO:

|---------------14--14---11-------------------------|
|-9--10--12^14---------------12---------------------|
|---------------------------------------------------|
|---------------------------------------------------|
|---------------------------------------------------|
|---------------------------------------------------|

|---------------------------------------------------|
|-9--10--12--12^14--12-------------9--10--9---------|
|------------------------9-----11-------------11----|
|---------------------------------------------------|
|---------------------------------------------------|
|---------------------------------------------------|

|--------------------14--14--11---------------------|
|-9--10--12^14--12---------------12-----------------|
|---------------------------------------------------|
|---------------------------------------------------|
|---------------------------------------------------|
|---------------------------------------------------|

|---------------------------------------------------|
|-9--10--12--12^14--12------------9^10-9-9^10-------|
|------------------------9----11-------------11-9---|
|-------------------------------------------------9-|
|---------------------------------------------------|
|---------------------------------------------------|

          E
E po' che fà
           Fa#m7                E
se resto a dire quel che non vorrei
           Fa#m7      Sol#m    Do#m
se presti tutto non respiri più
            Bm7          Fadim    La7+
ma po' faje pace e nun ce puo' passà
              Sol#m7      Do#m7       Fa#m7
pecchè 'int'a vita nun se po' maje sapè
e po' che fà
a parte tutto ricomincerei
è forse bello avere un anno in più
partire in fretta e non trovarsi mai
le cose che servivano di più ma allora...
E        Bm          FAdim
B putesse fà chello ca me vene
Am        E    Fa#m
t'appicciasse ccà
            Am
ma po' nun vale 'a pena
E          Bm7         Fadim
si putesse fà...'a capa nun m'aiuta
   Am          E
i' mo nun stevo ccà
            Fa#m7                 E
mannaggia a me e quando sò asciuto

e po' che fà
nascondi sempre addosso troppi guai
fra tanta gente non sai mai chi è
che mette gli occhi sopra quel che fai
pienz' 'a salute 'o riesto va pè sè
e po' che fà
se resto a dire quel che pagherei
fra tanta gente non sai mai chi è
che grida forte resta come sei
pecchè 'int'a vita
nun se po' maje sapè.


------

Il E Fatelo come un D spostato di due tasti (x22454) alternandolo magari
con un E6 (x22424).
Invece il Fadim è così: Fadim(xx3434).

Per consigli, chiarimenti, complimenti, correzioni... sono a disposizione.
Ciao,
Luca(riello)


--
rluc@freemail.it
____________________________
 Sensazione unica perché la musica
 ti prende anche l'anima...

(Pino Daniele 1993)



     
Добавлено: 15.10.2013
Другие материалы по этой песне:
  • Аккорды и текст

Страница создана 15.10.2013
http://primanota.ru/pino-daniele/e-po-che-fa-chords.htm
Привет, Гость.
Предлагаем пройти революционный курс по гитаре.
Подарок от PrimaNota.Ru, забирай!