PrimaNota.ru - самый крупный в мире бесплатный архив песенных текстов, аккордов, табулатур и нот


Pinkly Smooth - Pixel Nasal - таба, видео

Регистрация Запомнить меня
Войти через:  Facebook Google Twitter Vk Yandex Mail.ru

Pinkly Smooth - Pixel Nasal - таба, видео

Печатать
Просмотров: 130
Pixel & Nasal intro

I tabbed this myself by ear, I'm at least 95% sure about half of it, the first part 
sounds a bit off, but its the best I could do.
t=tap
p=pull off
~=vibrato
Drop D

e|------------------------|------------------------------|
B|------------------------|------------------------------|
G|------------------------|------------------------------|
D|-4-6-7-10---4-6-7-11-10-|-6-8-9-13-12---6-8-9-13-13-12-|
A|-4-6-7-10---4-6-7-11-10-|-6-8-9-13-12---6-8-9-13-13-12-|
E|-4-6-7-10---4-6-7-11-10-|-6-8-9-13-12---6-8-9-13-13-12-|

e|------------------------------------------------------------|
B|------------------------------------------------------------|
G|------------------------------------------------------------|
D|-1-1--1-1--1-1--1-1--1-1--1-1--1-1--1-1--1-1--1-1--1-1--1-1-|
A|-1-1--1-1--1-1--1-1--1-1--1-1--1-1--1-1--1-1--1-1--1-1--1-1-|
E|-1-1--1-1--1-1--1-1--1-1--1-1--1-1--1-1--1-1--1-1--1-1--1-1-|

e|-----------------------------|
B|-----------------------------|
G|-----------------------------| x4
D|-8-8-10-7--9-8---------------|
A|-6-6-8--5--9-8--8-9-8--8-9-8-|
E|-----------------------------|

e|-------------|
B|-------------|
G|-------------|
D|-8-8-8-8-8-8-|
A|-6-6-6-6-6-6-|
E|-------------|

I don't know the part in
between these  |
               V
e|---------------------------------------|
B|---------------------------------------|
G|---------------------------------------|
D|-8-8-8-3---8-8-8-3---8-8-8-3---8-8-8-3-|
A|-6-6-6-1---6-6-6-1---6-6-6-1---6-6-6-1-|
E|---------------------------------------|

Not too sure about this part
I don't know how to describe this but hold 13 on the e string to get the right sound 
when you pull off

e|----------t16p16p--t17p17p--t16p16p--t17p17p--t17/\-|
B|-13~~~~~--------------------------------------------|
G|----------------------------------------------------|
D|----------------------------------------------------|
A|----------------------------------------------------|
E|----------------------------------------------------|

This is as far as I have got because I can't hear the guitar after this haha. Please 
leave any comments on the rest of the song or any corrections :)
Добавлено: 29.08.2013
Другие материалы по этой песне:
  • Аккорды и текст

Страница создана 29.08.2013
http://primanota.ru/pinkly-smooth/pixel-nasal-chords.htm
Привет, Гость.
Предлагаем пройти революционный курс по гитаре.
Подарок от PrimaNota.Ru, забирай!